  0
SECTION
  2
HEADER
  9
$ACADVER
  1
AC1024
  9
$ACADMAINTVER
 70
     6
  9
$DWGCODEPAGE
  3
ANSI_1252
  9
$INSBASE
 10
0.0
 20
0.0
 30
0.0
  9
$EXTMIN
 10
1.000000000000000E+20
 20
1.000000000000000E+20
 30
1.000000000000000E+20
  9
$EXTMAX
 10
-1.000000000000000E+20
 20
-1.000000000000000E+20
 30
-1.000000000000000E+20
  9
$LIMMIN
 10
0.0
 20
0.0
  9
$LIMMAX
 10
12.0
 20
9.0
  9
$ORTHOMODE
 70
     0
  9
$REGENMODE
 70
     1
  9
$FILLMODE
 70
     1
  9
$QTEXTMODE
 70
     0
  9
$MIRRTEXT
 70
     1
  9
$LTSCALE
 40
1.0
  9
$ATTMODE
 70
     1
  9
$TEXTSIZE
 40
0.2
  9
$TRACEWID
 40
0.05
  9
$TEXTSTYLE
  7
Standard
  9
$CLAYER
  8
0
  9
$CELTYPE
  6
ByLayer
  9
$CECOLOR
 62
   256
  9
$CELTSCALE
 40
1.0
  9
$DISPSILH
 70
     0
  9
$DIMSCALE
 40
1.0
  9
$DIMASZ
 40
0.18
  9
$DIMEXO
 40
0.0625
  9
$DIMDLI
 40
0.38
  9
$DIMRND
 40
0.0
  9
$DIMDLE
 40
0.0
  9
$DIMEXE
 40
0.18
  9
$DIMTP
 40
0.0
  9
$DIMTM
 40
0.0
  9
$DIMTXT
 40
0.18
  9
$DIMCEN
 40
0.09
  9
$DIMTSZ
 40
0.0
  9
$DIMTOL
 70
     0
  9
$DIMLIM
 70
     0
  9
$DIMTIH
 70
     1
  9
$DIMTOH
 70
     1
  9
$DIMSE1
 70
     0
  9
$DIMSE2
 70
     0
  9
$DIMTAD
 70
     0
  9
$DIMZIN
 70
     0
  9
$DIMBLK
  1

  9
$DIMASO
 70
     1
  9
$DIMSHO
 70
     1
  9
$DIMPOST
  1

  9
$DIMAPOST
  1

  9
$DIMALT
 70
     0
  9
$DIMALTD
 70
     2
  9
$DIMALTF
 40
25.4
  9
$DIMLFAC
 40
1.0
  9
$DIMTOFL
 70
     0
  9
$DIMTVP
 40
0.0
  9
$DIMTIX
 70
     0
  9
$DIMSOXD
 70
     0
  9
$DIMSAH
 70
     0
  9
$DIMBLK1
  1

  9
$DIMBLK2
  1

  9
$DIMSTYLE
  2
Standard
  9
$DIMCLRD
 70
     0
  9
$DIMCLRE
 70
     0
  9
$DIMCLRT
 70
     0
  9
$DIMTFAC
 40
1.0
  9
$DIMGAP
 40
0.09
  9
$DIMJUST
 70
     0
  9
$DIMSD1
 70
     0
  9
$DIMSD2
 70
     0
  9
$DIMTOLJ
 70
     1
  9
$DIMTZIN
 70
     0
  9
$DIMALTZ
 70
     0
  9
$DIMALTTZ
 70
     0
  9
$DIMUPT
 70
     0
  9
$DIMDEC
 70
     4
  9
$DIMTDEC
 70
     4
  9
$DIMALTU
 70
     2
  9
$DIMALTTD
 70
     2
  9
$DIMTXSTY
  7
Standard
  9
$DIMAUNIT
 70
     0
  9
$DIMADEC
 70
     0
  9
$DIMALTRND
 40
0.0
  9
$DIMAZIN
 70
     0
  9
$DIMDSEP
 70
    46
  9
$DIMATFIT
 70
     3
  9
$DIMFRAC
 70
     0
  9
$DIMLDRBLK
  1

  9
$DIMLUNIT
 70
     2
  9
$DIMLWD
 70
    -2
  9
$DIMLWE
 70
    -2
  9
$DIMTMOVE
 70
     0
  9
$DIMFXL
 40
1.0
  9
$DIMFXLON
 70
     0
  9
$DIMJOGANG
 40
0.7853981633974483
  9
$DIMTFILL
 70
     0
  9
$DIMTFILLCLR
 70
     0
  9
$DIMARCSYM
 70
     0
  9
$DIMLTYPE
  6

  9
$DIMLTEX1
  6

  9
$DIMLTEX2
  6

  9
$DIMTXTDIRECTION
 70
     0
  9
$LUNITS
 70
     2
  9
$LUPREC
 70
     4
  9
$SKETCHINC
 40
0.1
  9
$FILLETRAD
 40
0.5
  9
$AUNITS
 70
     0
  9
$AUPREC
 70
     0
  9
$MENU
  1
.
  9
$ELEVATION
 40
0.0
  9
$PELEVATION
 40
0.0
  9
$THICKNESS
 40
0.0
  9
$LIMCHECK
 70
     0
  9
$CHAMFERA
 40
0.5
  9
$CHAMFERB
 40
0.5
  9
$CHAMFERC
 40
1.0
  9
$CHAMFERD
 40
0.0
  9
$SKPOLY
 70
     0
  9
$TDCREATE
 40
2458774.623685648
  9
$TDUCREATE
 40
2458774.082018982
  9
$TDUPDATE
 40
2458774.62368581
  9
$TDUUPDATE
 40
2458774.082019144
  9
$TDINDWG
 40
0.0000000116
  9
$TDUSRTIMER
 40
0.0000000116
  9
$USRTIMER
 70
     1
  9
$ANGBASE
 50
0.0
  9
$ANGDIR
 70
     0
  9
$PDMODE
 70
     0
  9
$PDSIZE
 40
0.0
  9
$PLINEWID
 40
0.0
  9
$SPLFRAME
 70
     0
  9
$SPLINETYPE
 70
     6
  9
$SPLINESEGS
 70
     8
  9
$HANDSEED
  5
2AC
  9
$SURFTAB1
 70
     6
  9
$SURFTAB2
 70
     6
  9
$SURFTYPE
 70
     6
  9
$SURFU
 70
     6
  9
$SURFV
 70
     6
  9
$UCSBASE
  2

  9
$UCSNAME
  2

  9
$UCSORG
 10
0.0
 20
0.0
 30
0.0
  9
$UCSXDIR
 10
1.0
 20
0.0
 30
0.0
  9
$UCSYDIR
 10
0.0
 20
1.0
 30
0.0
  9
$UCSORTHOREF
  2

  9
$UCSORTHOVIEW
 70
     0
  9
$UCSORGTOP
 10
0.0
 20
0.0
 30
0.0
  9
$UCSORGBOTTOM
 10
0.0
 20
0.0
 30
0.0
  9
$UCSORGLEFT
 10
0.0
 20
0.0
 30
0.0
  9
$UCSORGRIGHT
 10
0.0
 20
0.0
 30
0.0
  9
$UCSORGFRONT
 10
0.0
 20
0.0
 30
0.0
  9
$UCSORGBACK
 10
0.0
 20
0.0
 30
0.0
  9
$PUCSBASE
  2

  9
$PUCSNAME
  2

  9
$PUCSORG
 10
0.0
 20
0.0
 30
0.0
  9
$PUCSXDIR
 10
1.0
 20
0.0
 30
0.0
  9
$PUCSYDIR
 10
0.0
 20
1.0
 30
0.0
  9
$PUCSORTHOREF
  2

  9
$PUCSORTHOVIEW
 70
     0
  9
$PUCSORGTOP
 10
0.0
 20
0.0
 30
0.0
  9
$PUCSORGBOTTOM
 10
0.0
 20
0.0
 30
0.0
  9
$PUCSORGLEFT
 10
0.0
 20
0.0
 30
0.0
  9
$PUCSORGRIGHT
 10
0.0
 20
0.0
 30
0.0
  9
$PUCSORGFRONT
 10
0.0
 20
0.0
 30
0.0
  9
$PUCSORGBACK
 10
0.0
 20
0.0
 30
0.0
  9
$USERI1
 70
     0
  9
$USERI2
 70
     0
  9
$USERI3
 70
     0
  9
$USERI4
 70
     0
  9
$USERI5
 70
     0
  9
$USERR1
 40
0.0
  9
$USERR2
 40
0.0
  9
$USERR3
 40
0.0
  9
$USERR4
 40
0.0
  9
$USERR5
 40
0.0
  9
$WORLDVIEW
 70
     1
  9
$SHADEDGE
 70
     3
  9
$SHADEDIF
 70
    70
  9
$TILEMODE
 70
     1
  9
$MAXACTVP
 70
    64
  9
$PINSBASE
 10
0.0
 20
0.0
 30
0.0
  9
$PLIMCHECK
 70
     0
  9
$PEXTMIN
 10
1.000000000000000E+20
 20
1.000000000000000E+20
 30
1.000000000000000E+20
  9
$PEXTMAX
 10
-1.000000000000000E+20
 20
-1.000000000000000E+20
 30
-1.000000000000000E+20
  9
$PLIMMIN
 10
0.0
 20
0.0
  9
$PLIMMAX
 10
12.0
 20
9.0
  9
$UNITMODE
 70
     0
  9
$VISRETAIN
 70
     1
  9
$PLINEGEN
 70
     0
  9
$PSLTSCALE
 70
     1
  9
$TREEDEPTH
 70
  3020
  9
$CMLSTYLE
  2
Standard
  9
$CMLJUST
 70
     0
  9
$CMLSCALE
 40
1.0
  9
$PROXYGRAPHICS
 70
     1
  9
$MEASUREMENT
 70
     0
  9
$CELWEIGHT
370
    -1
  9
$ENDCAPS
280
     0
  9
$JOINSTYLE
280
     0
  9
$LWDISPLAY
290
     1
  9
$INSUNITS
 70
     1
  9
$HYPERLINKBASE
  1

  9
$STYLESHEET
  1

  9
$XEDIT
290
     1
  9
$CEPSNTYPE
380
     0
  9
$PSTYLEMODE
290
     1
  9
$FINGERPRINTGUID
  2
{A0458060-84B1-4767-8A8D-73AE14B13E33}
  9
$VERSIONGUID
  2
{FAEB1C32-E019-11D5-929B-00C0DF256EC4}
  9
$EXTNAMES
290
     1
  9
$PSVPSCALE
 40
0.0
  9
$OLESTARTUP
290
     0
  9
$SORTENTS
280
   127
  9
$INDEXCTL
280
     0
  9
$HIDETEXT
280
     1
  9
$XCLIPFRAME
280
     2
  9
$HALOGAP
280
     0
  9
$OBSCOLOR
 70
   257
  9
$OBSLTYPE
280
     0
  9
$INTERSECTIONDISPLAY
280
     0
  9
$INTERSECTIONCOLOR
 70
   257
  9
$DIMASSOC
280
     2
  9
$PROJECTNAME
  1

  9
$CAMERADISPLAY
290
     0
  9
$LENSLENGTH
 40
50.0
  9
$CAMERAHEIGHT
 40
0.0
  9
$STEPSPERSEC
 40
2.0
  9
$STEPSIZE
 40
6.0
  9
$3DDWFPREC
 40
2.0
  9
$PSOLWIDTH
 40
0.25
  9
$PSOLHEIGHT
 40
4.0
  9
$LOFTANG1
 40
1.570796326794897
  9
$LOFTANG2
 40
1.570796326794897
  9
$LOFTMAG1
 40
0.0
  9
$LOFTMAG2
 40
0.0
  9
$LOFTPARAM
 70
     7
  9
$LOFTNORMALS
280
     1
  9
$LATITUDE
 40
37.795
  9
$LONGITUDE
 40
-122.394
  9
$NORTHDIRECTION
 40
0.0
  9
$TIMEZONE
 70
 -8000
  9
$LIGHTGLYPHDISPLAY
280
     1
  9
$TILEMODELIGHTSYNCH
280
     1
  9
$CMATERIAL
347
3C
  9
$SOLIDHIST
280
     1
  9
$SHOWHIST
280
     1
  9
$DWFFRAME
280
     2
  9
$DGNFRAME
280
     2
  9
$REALWORLDSCALE
290
     1
  9
$INTERFERECOLOR
 62
   256
  9
$CSHADOW
280
     0
  9
$SHADOWPLANELOCATION
 40
0.0
  0
ENDSEC
  0
SECTION
  2
CLASSES
  0
CLASS
  1
ACDBDICTIONARYWDFLT
  2
AcDbDictionaryWithDefault
  3
ObjectDBX Classes
 90
        0
 91
        4
280
     0
281
     0
  0
CLASS
  1
VISUALSTYLE
  2
AcDbVisualStyle
  3
ObjectDBX Classes
 90
     4095
 91
        4
280
     0
281
     0
  0
CLASS
  1
MATERIAL
  2
AcDbMaterial
  3
ObjectDBX Classes
 90
     1153
 91
        4
280
     0
281
     0
  0
CLASS
  1
SUN
  2
AcDbSun
  3
SCENEOE
 90
     1024
 91
        4
280
     0
281
     0
  0
ENDSEC
  0
SECTION
  2
TABLES
  0
TABLE
  2
VPORT
  5
8
330
0
100
AcDbSymbolTable
 70
     1
  0
VPORT
  5
29
330
8
100
AcDbSymbolTableRecord
100
AcDbViewportTableRecord
  2
*Active
 70
     0
 10
0.0
 20
0.0
 11
1.0
 21
1.0
 12
0.0
 22
0.0
 13
0.0
 23
0.0
 14
0.5
 24
0.5
 15
0.5
 25
0.5
 16
0.0
 26
0.0
 36
1.0
 17
1.850350813629524
 27
2.677377232720295
 37
0.0
 40
11.69291338582677
 41
0.7070707070707065
 42
50.0
 43
0.0
 44
0.0
 50
0.0
 51
0.0
 71
     0
 72
   100
 73
     1
 74
     3
 75
     0
 76
     0
 77
     0
 78
     0
281
     0
 65
     1
110
0.0
120
0.0
130
0.0
111
1.0
121
0.0
131
0.0
112
0.0
122
1.0
132
0.0
 79
     0
146
0.0
 60
     3
 61
     5
292
     1
282
     1
141
0.0
142
0.0
 63
   250
361
3F
  0
ENDTAB
  0
TABLE
  2
LTYPE
  5
5
330
0
100
AcDbSymbolTable
 70
     2
  0
LTYPE
  5
14
330
5
100
AcDbSymbolTableRecord
100
AcDbLinetypeTableRecord
  2
ByBlock
 70
     0
  3

 72
    65
 73
     0
 40
0.0
  0
LTYPE
  5
15
330
5
100
AcDbSymbolTableRecord
100
AcDbLinetypeTableRecord
  2
ByLayer
 70
     0
  3

 72
    65
 73
     0
 40
0.0
  0
LTYPE
  5
16
330
5
100
AcDbSymbolTableRecord
100
AcDbLinetypeTableRecord
  2
Continuous
 70
     0
  3
Solid line
 72
    65
 73
     0
 40
0.0
  0
LTYPE
  5
20C
330
5
100
AcDbSymbolTableRecord
100
AcDbLinetypeTableRecord
  2
AI-Linetype-1
 70
     0
  3
Adobe Illustrator Linetype No. 1
 72
    65
 73
     6
 40
0.1478422582149505
 49
0.0295684470070733
 74
     0
 49
-0.0197123057312436
 74
     0
 49
0.0295684470070733
 74
     0
 49
-0.0197123057312436
 74
     0
 49
0.0295684470070733
 74
     0
 49
-0.0197123057312436
 74
     0
  0
ENDTAB
  0
TABLE
  2
LAYER
  5
2
330
0
100
AcDbSymbolTable
 70
     4
  0
LAYER
  5
10
330
2
100
AcDbSymbolTableRecord
100
AcDbLayerTableRecord
  2
0
 70
     0
 62
     7
  6
Continuous
370
    -3
390
F
347
3E
  0
LAYER
  5
40
330
2
100
AcDbSymbolTableRecord
100
AcDbLayerTableRecord
  2
Wood
 70
     0
 62
     7
  6
Continuous
370
    -3
390
F
347
3E
  0
LAYER
  5
1FB
330
2
100
AcDbSymbolTableRecord
100
AcDbLayerTableRecord
  2
TSP
 70
     0
 62
     7
  6
Continuous
370
    -3
390
F
347
3E
  0
LAYER
  5
298
330
2
100
AcDbSymbolTableRecord
100
AcDbLayerTableRecord
  2
callout
 70
     0
 62
     7
  6
Continuous
370
    -3
390
F
347
3E
  0
ENDTAB
  0
TABLE
  2
STYLE
  5
3
330
0
100
AcDbSymbolTable
 70
     1
  0
STYLE
  5
11
330
3
100
AcDbSymbolTableRecord
100
AcDbTextStyleTableRecord
  2
Standard
 70
     0
 40
0.0
 41
1.0
 50
0.0
 71
     0
 42
0.2
  3
txt
  4

  0
ENDTAB
  0
TABLE
  2
VIEW
  5
6
330
0
100
AcDbSymbolTable
 70
     0
  0
ENDTAB
  0
TABLE
  2
UCS
  5
7
330
0
100
AcDbSymbolTable
 70
     0
  0
ENDTAB
  0
TABLE
  2
APPID
  5
9
330
0
100
AcDbSymbolTable
 70
     1
  0
APPID
  5
12
330
9
100
AcDbSymbolTableRecord
100
AcDbRegAppTableRecord
  2
ACAD
 70
     0
  0
ENDTAB
  0
TABLE
  2
DIMSTYLE
  5
A
330
0
100
AcDbSymbolTable
 70
     1
100
AcDbDimStyleTable
  0
DIMSTYLE
105
27
330
A
100
AcDbSymbolTableRecord
100
AcDbDimStyleTableRecord
  2
Standard
 70
     0
178
     0
340
11
  0
ENDTAB
  0
TABLE
  2
BLOCK_RECORD
  5
1
330
0
100
AcDbSymbolTable
 70
    20
  0
BLOCK_RECORD
  5
1F
330
1
100
AcDbSymbolTableRecord
100
AcDbBlockTableRecord
  2
*Model_Space
340
22
 70
     0
280
     1
281
     0
  0
BLOCK_RECORD
  5
1B
330
1
100
AcDbSymbolTableRecord
100
AcDbBlockTableRecord
  2
*Paper_Space
340
1E
 70
     0
280
     1
281
     0
  0
BLOCK_RECORD
  5
23
330
1
100
AcDbSymbolTableRecord
100
AcDbBlockTableRecord
  2
*Paper_Space0
340
26
 70
     0
280
     1
281
     0
  0
BLOCK_RECORD
  5
C4
330
1
100
AcDbSymbolTableRecord
100
AcDbBlockTableRecord
  2
block 2
340
0
102
{BLKREFS
331
C5
102
}
 70
     0
280
     1
281
     0
  0
BLOCK_RECORD
  5
21F
330
1
100
AcDbSymbolTableRecord
100
AcDbBlockTableRecord
  2
block 3
340
0
102
{BLKREFS
331
220
102
}
 70
     0
280
     1
281
     0
  0
BLOCK_RECORD
  5
229
330
1
100
AcDbSymbolTableRecord
100
AcDbBlockTableRecord
  2
block 4
340
0
102
{BLKREFS
331
22A
102
}
 70
     0
280
     1
281
     0
  0
BLOCK_RECORD
  5
233
330
1
100
AcDbSymbolTableRecord
100
AcDbBlockTableRecord
  2
block 5
340
0
102
{BLKREFS
331
234
102
}
 70
     0
280
     1
281
     0
  0
BLOCK_RECORD
  5
23D
330
1
100
AcDbSymbolTableRecord
100
AcDbBlockTableRecord
  2
block 6
340
0
102
{BLKREFS
331
23E
102
}
 70
     0
280
     1
281
     0
  0
BLOCK_RECORD
  5
243
330
1
100
AcDbSymbolTableRecord
100
AcDbBlockTableRecord
  2
block 7
340
0
102
{BLKREFS
331
244
102
}
 70
     0
280
     1
281
     0
  0
BLOCK_RECORD
  5
249
330
1
100
AcDbSymbolTableRecord
100
AcDbBlockTableRecord
  2
block 8
340
0
102
{BLKREFS
331
24A
102
}
 70
     0
280
     1
281
     0
  0
BLOCK_RECORD
  5
24F
330
1
100
AcDbSymbolTableRecord
100
AcDbBlockTableRecord
  2
block 9
340
0
102
{BLKREFS
331
250
102
}
 70
     0
280
     1
281
     0
  0
BLOCK_RECORD
  5
255
330
1
100
AcDbSymbolTableRecord
100
AcDbBlockTableRecord
  2
block 10
340
0
102
{BLKREFS
331
256
102
}
 70
     0
280
     1
281
     0
  0
BLOCK_RECORD
  5
25B
330
1
100
AcDbSymbolTableRecord
100
AcDbBlockTableRecord
  2
block 11
340
0
102
{BLKREFS
331
25C
102
}
 70
     0
280
     1
281
     0
  0
BLOCK_RECORD
  5
261
330
1
100
AcDbSymbolTableRecord
100
AcDbBlockTableRecord
  2
block 12
340
0
102
{BLKREFS
331
262
102
}
 70
     0
280
     1
281
     0
  0
BLOCK_RECORD
  5
267
330
1
100
AcDbSymbolTableRecord
100
AcDbBlockTableRecord
  2
block 13
340
0
102
{BLKREFS
331
268
102
}
 70
     0
280
     1
281
     0
  0
BLOCK_RECORD
  5
26D
330
1
100
AcDbSymbolTableRecord
100
AcDbBlockTableRecord
  2
block 14
340
0
102
{BLKREFS
331
26E
102
}
 70
     0
280
     1
281
     0
  0
BLOCK_RECORD
  5
273
330
1
100
AcDbSymbolTableRecord
100
AcDbBlockTableRecord
  2
block 15
340
0
102
{BLKREFS
331
274
102
}
 70
     0
280
     1
281
     0
  0
BLOCK_RECORD
  5
279
330
1
100
AcDbSymbolTableRecord
100
AcDbBlockTableRecord
  2
block 16
340
0
102
{BLKREFS
331
27A
102
}
 70
     0
280
     1
281
     0
  0
BLOCK_RECORD
  5
27F
330
1
100
AcDbSymbolTableRecord
100
AcDbBlockTableRecord
  2
block 17
340
0
102
{BLKREFS
331
280
102
}
 70
     0
280
     1
281
     0
  0
BLOCK_RECORD
  5
285
330
1
100
AcDbSymbolTableRecord
100
AcDbBlockTableRecord
  2
block 18
340
0
102
{BLKREFS
331
286
102
}
 70
     0
280
     1
281
     0
  0
BLOCK_RECORD
  5
28B
330
1
100
AcDbSymbolTableRecord
100
AcDbBlockTableRecord
  2
block 19
340
0
102
{BLKREFS
331
28C
102
}
 70
     0
280
     1
281
     0
  0
BLOCK_RECORD
  5
291
330
1
100
AcDbSymbolTableRecord
100
AcDbBlockTableRecord
  2
block 20
340
0
102
{BLKREFS
331
292
102
}
 70
     0
280
     1
281
     0
  0
ENDTAB
  0
ENDSEC
  0
SECTION
  2
BLOCKS
  0
BLOCK
  5
20
330
1F
100
AcDbEntity
  8
0
100
AcDbBlockBegin
  2
*Model_Space
 70
     0
 10
0.0
 20
0.0
 30
0.0
  3
*Model_Space
  1

  0
ENDBLK
  5
21
330
1F
100
AcDbEntity
  8
0
100
AcDbBlockEnd
  0
BLOCK
  5
1C
330
1B
100
AcDbEntity
 67
     1
  8
0
100
AcDbBlockBegin
  2
*Paper_Space
 70
     0
 10
0.0
 20
0.0
 30
0.0
  3
*Paper_Space
  1

  0
ENDBLK
  5
1D
330
1B
100
AcDbEntity
 67
     1
  8
0
100
AcDbBlockEnd
  0
BLOCK
  5
24
330
23
100
AcDbEntity
  8
0
100
AcDbBlockBegin
  2
*Paper_Space0
 70
     0
 10
0.0
 20
0.0
 30
0.0
  3
*Paper_Space0
  1

  0
ENDBLK
  5
25
330
23
100
AcDbEntity
  8
0
100
AcDbBlockEnd
  0
BLOCK
  5
C6
330
C4
100
AcDbEntity
  8
0
100
AcDbBlockBegin
  2
block 2
 70
     0
 10
0.0
 20
0.0
 30
0.0
  3
block 2
  1

  0
POLYLINE
  5
C8
330
C4
100
AcDbEntity
  8
Wood
 62
   250
420
  2301728
370
    30
100
AcDb2dPolyline
 66
     1
 10
0.0
 20
0.0
 30
0.0
  0
VERTEX
  5
C9
330
C8
100
AcDbEntity
  8
Wood
 62
   250
420
  2301728
370
    30
100
AcDbVertex
100
AcDb2dVertex
 10
1.723620034060256
 20
3.716909808383207
 30
0.0
  0
VERTEX
  5
CA
330
C8
100
AcDbEntity
  8
Wood
 62
   250
420
  2301728
370
    30
100
AcDbVertex
100
AcDb2dVertex
 10
1.726767071415629
 20
3.153729562695692
 30
0.0
  0
VERTEX
  5
CB
330
C8
100
AcDbEntity
  8
Wood
 62
   250
420
  2301728
370
    30
100
AcDbVertex
100
AcDb2dVertex
 10
1.752979560556532
 20
3.143281110177415
 30
0.0
  0
VERTEX
  5
CC
330
C8
100
AcDbEntity
  8
Wood
 62
   250
420
  2301728
370
    30
100
AcDbVertex
100
AcDb2dVertex
 10
2.657977588604858
 20
3.303037131769189
 30
0.0
  0
VERTEX
  5
CD
330
C8
100
AcDbEntity
  8
Wood
 62
   250
420
  2301728
370
    30
100
AcDbVertex
100
AcDb2dVertex
 10
2.654313658177367
 20
3.850710715137704
 30
0.0
  0
VERTEX
  5
CE
330
C8
100
AcDbEntity
  8
Wood
 62
   250
420
  2301728
370
    30
100
AcDbVertex
100
AcDb2dVertex
 10
2.624074211381564
 20
3.858952024601181
 30
0.0
  0
VERTEX
  5
CF
330
C8
100
AcDbEntity
  8
Wood
 62
   250
420
  2301728
370
    30
100
AcDbVertex
100
AcDb2dVertex
 10
1.723620034060256
 20
3.716909808383207
 30
0.0
  0
SEQEND
  5
D1
330
C8
100
AcDbEntity
  8
Wood
 62
   250
420
  2301728
370
    30
  0
HATCH
  5
D0
330
C4
100
AcDbEntity
  8
Wood
 62
   254
420
 13358815
100
AcDbHatch
 10
0.0
 20
0.0
 30
0.0
210
0.0
220
0.0
230
1.0
  2
SOLID
 70
     1
 71
     0
 91
        1
 92
        1
 93
        6
 72
     1
 10
1.723620034060256
 20
3.716909808383207
 11
1.726767071415629
 21
3.153729562695692
 72
     1
 10
1.726767071415629
 20
3.153729562695692
 11
1.752979560556532
 21
3.143281110177415
 72
     1
 10
1.752979560556532
 20
3.143281110177415
 11
2.657977588604858
 21
3.303037131769189
 72
     1
 10
2.657977588604858
 20
3.303037131769189
 11
2.654313658177367
 21
3.850710715137704
 72
     1
 10
2.654313658177367
 20
3.850710715137704
 11
2.624074211381564
 21
3.858952024601181
 72
     1
 10
2.624074211381564
 20
3.858952024601181
 11
1.723620034060256
 21
3.716909808383207
 97
        0
 75
     2
 76
     1
 98
        0
  0
POLYLINE
  5
D2
330
C4
100
AcDbEntity
  8
Wood
 62
   250
420
  2301728
370
    18
100
AcDb2dPolyline
 66
     1
 10
0.0
 20
0.0
 30
0.0
  0
VERTEX
  5
D3
330
D2
100
AcDbEntity
  8
Wood
 62
   250
420
  2301728
370
    18
100
AcDbVertex
100
AcDb2dVertex
 10
1.724723540665372
 20
3.715921701161619
 30
0.0
  0
VERTEX
  5
D4
330
D2
100
AcDbEntity
  8
Wood
 62
   250
420
  2301728
370
    18
100
AcDbVertex
100
AcDb2dVertex
 10
1.746921092920552
 20
3.701191450683179
 30
0.0
  0
SEQEND
  5
D5
330
D2
100
AcDbEntity
  8
Wood
 62
   250
420
  2301728
370
    18
  0
POLYLINE
  5
D6
330
C4
100
AcDbEntity
  8
Wood
 62
   250
420
  2301728
370
    18
100
AcDb2dPolyline
 66
     1
 10
0.0
 20
0.0
 30
0.0
  0
VERTEX
  5
D7
330
D6
100
AcDbEntity
  8
Wood
 62
   250
420
  2301728
370
    18
100
AcDbVertex
100
AcDb2dVertex
 10
1.750760526577147
 20
3.147332109370533
 30
0.0
  0
VERTEX
  5
D8
330
D6
100
AcDbEntity
  8
Wood
 62
   250
420
  2301728
370
    18
100
AcDbVertex
100
AcDb2dVertex
 10
1.749034344131676
 20
3.700227384999835
 30
0.0
  0
VERTEX
  5
D9
330
D6
100
AcDbEntity
  8
Wood
 62
   250
420
  2301728
370
    18
100
AcDbVertex
100
AcDb2dVertex
 10
2.652436014040985
 20
3.846508124409171
 30
0.0
  0
SEQEND
  5
DA
330
D6
100
AcDbEntity
  8
Wood
 62
   250
420
  2301728
370
    18
  0
POLYLINE
  5
DB
330
C4
100
AcDbEntity
  8
Wood
 62
   250
420
  2301728
370
    15
100
AcDb2dPolyline
 66
     1
 10
0.0
 20
0.0
 30
0.0
  0
VERTEX
  5
DC
330
DB
100
AcDbEntity
  8
Wood
 62
   250
420
  2301728
370
    15
100
AcDbVertex
100
AcDb2dVertex
 10
1.88965810959361
 20
3.660748775059144
 30
0.0
  0
VERTEX
  5
DD
330
DB
100
AcDbEntity
  8
Wood
 62
   250
420
  2301728
370
    15
100
AcDbVertex
100
AcDb2dVertex
 10
1.901585116713502
 20
3.652836704825012
 30
0.0
  0
VERTEX
  5
DE
330
DB
100
AcDbEntity
  8
Wood
 62
   250
420
  2301728
370
    15
100
AcDbVertex
100
AcDb2dVertex
 10
1.804935728842767
 20
3.638104050192737
 30
0.0
  0
VERTEX
  5
DF
330
DB
100
AcDbEntity
  8
Wood
 62
   250
420
  2301728
370
    15
100
AcDbVertex
100
AcDb2dVertex
 10
1.803281751156015
 20
3.655618310799152
 30
0.0
  0
VERTEX
  5
E0
330
DB
100
AcDbEntity
  8
Wood
 62
   250
420
  2301728
370
    15
100
AcDbVertex
100
AcDb2dVertex
 10
1.900926378565777
 20
3.672065127107771
 30
0.0
  0
SEQEND
  5
E1
330
DB
100
AcDbEntity
  8
Wood
 62
   250
420
  2301728
370
    15
  0
POLYLINE
  5
E2
330
C4
100
AcDbEntity
  8
Wood
 62
   250
420
  2301728
370
    15
100
AcDb2dPolyline
 66
     1
 10
0.0
 20
0.0
 30
0.0
  0
VERTEX
  5
E3
330
E2
100
AcDbEntity
  8
Wood
 62
   250
420
  2301728
370
    15
100
AcDbVertex
100
AcDb2dVertex
 10
1.868056787486719
 20
3.597993147796387
 30
0.0
  0
VERTEX
  5
E4
330
E2
100
AcDbEntity
  8
Wood
 62
   250
420
  2301728
370
    15
100
AcDbVertex
100
AcDb2dVertex
 10
1.880007836144866
 20
3.590081077562255
 30
0.0
  0
VERTEX
  5
E5
330
E2
100
AcDbEntity
  8
Wood
 62
   250
420
  2301728
370
    15
100
AcDbVertex
100
AcDb2dVertex
 10
1.783382489812362
 20
3.575336402160865
 30
0.0
  0
VERTEX
  5
E6
330
E2
100
AcDbEntity
  8
Wood
 62
   250
420
  2301728
370
    15
100
AcDbVertex
100
AcDb2dVertex
 10
1.781728431981593
 20
3.59285066276728
 30
0.0
  0
VERTEX
  5
E7
330
E2
100
AcDbEntity
  8
Wood
 62
   250
420
  2301728
370
    15
100
AcDbVertex
100
AcDb2dVertex
 10
1.879327460612735
 20
3.609297479075912
 30
0.0
  0
SEQEND
  5
E8
330
E2
100
AcDbEntity
  8
Wood
 62
   250
420
  2301728
370
    15
  0
POLYLINE
  5
E9
330
C4
100
AcDbEntity
  8
Wood
 62
   250
420
  2301728
370
    15
100
AcDb2dPolyline
 66
     1
 10
0.0
 20
0.0
 30
0.0
  0
VERTEX
  5
EA
330
E9
100
AcDbEntity
  8
Wood
 62
   250
420
  2301728
370
    15
100
AcDbVertex
100
AcDb2dVertex
 10
1.872824224519339
 20
3.462511987401361
 30
0.0
  0
VERTEX
  5
EB
330
E9
100
AcDbEntity
  8
Wood
 62
   250
420
  2301728
370
    15
100
AcDbVertex
100
AcDb2dVertex
 10
1.884751231639231
 20
3.45461181789853
 30
0.0
  0
VERTEX
  5
EC
330
E9
100
AcDbEntity
  8
Wood
 62
   250
420
  2301728
370
    15
100
AcDbVertex
100
AcDb2dVertex
 10
1.788080206384077
 20
3.43985512172805
 30
0.0
  0
VERTEX
  5
ED
330
E9
100
AcDbEntity
  8
Wood
 62
   250
420
  2301728
370
    15
100
AcDbVertex
100
AcDb2dVertex
 10
1.786447785937702
 20
3.457371786488276
 30
0.0
  0
VERTEX
  5
EE
330
E9
100
AcDbEntity
  8
Wood
 62
   250
420
  2301728
370
    15
100
AcDbVertex
100
AcDb2dVertex
 10
1.884068451953276
 20
3.473816198643097
 30
0.0
  0
SEQEND
  5
EF
330
E9
100
AcDbEntity
  8
Wood
 62
   250
420
  2301728
370
    15
  0
POLYLINE
  5
F0
330
C4
100
AcDbEntity
  8
Wood
 62
   250
420
  2301728
370
    15
100
AcDb2dPolyline
 66
     1
 10
0.0
 20
0.0
 30
0.0
  0
VERTEX
  5
F1
330
F0
100
AcDbEntity
  8
Wood
 62
   250
420
  2301728
370
    15
100
AcDbVertex
100
AcDb2dVertex
 10
1.877048322787762
 20
3.34055635634349
 30
0.0
  0
VERTEX
  5
F2
330
F0
100
AcDbEntity
  8
Wood
 62
   250
420
  2301728
370
    15
100
AcDbVertex
100
AcDb2dVertex
 10
1.888999371445885
 20
3.332644286109333
 30
0.0
  0
VERTEX
  5
F3
330
F0
100
AcDbEntity
  8
Wood
 62
   250
420
  2301728
370
    15
100
AcDbVertex
100
AcDb2dVertex
 10
1.792352387728973
 20
3.317899610707943
 30
0.0
  0
VERTEX
  5
F4
330
F0
100
AcDbEntity
  8
Wood
 62
   250
420
  2301728
370
    15
100
AcDbVertex
100
AcDb2dVertex
 10
1.790719967282611
 20
3.335401850545231
 30
0.0
  0
VERTEX
  5
F5
330
F0
100
AcDbEntity
  8
Wood
 62
   250
420
  2301728
370
    15
100
AcDbVertex
100
AcDb2dVertex
 10
1.888318995913753
 20
3.351872825634915
 30
0.0
  0
SEQEND
  5
F6
330
F0
100
AcDbEntity
  8
Wood
 62
   250
420
  2301728
370
    15
  0
POLYLINE
  5
F7
330
C4
100
AcDbEntity
  8
Wood
 62
   250
420
  2301728
370
    15
100
AcDb2dPolyline
 66
     1
 10
0.0
 20
0.0
 30
0.0
  0
VERTEX
  5
F8
330
F7
100
AcDbEntity
  8
Wood
 62
   250
420
  2301728
370
    15
100
AcDbVertex
100
AcDb2dVertex
 10
1.881346949824724
 20
3.218586534276129
 30
0.0
  0
VERTEX
  5
F9
330
F7
100
AcDbEntity
  8
Wood
 62
   250
420
  2301728
370
    15
100
AcDbVertex
100
AcDb2dVertex
 10
1.893249915406361
 20
3.210674350166288
 30
0.0
  0
VERTEX
  5
FA
330
F7
100
AcDbEntity
  8
Wood
 62
   250
420
  2301728
370
    15
100
AcDbVertex
100
AcDb2dVertex
 10
1.796602931689449
 20
3.195929674764898
 30
0.0
  0
VERTEX
  5
FB
330
F7
100
AcDbEntity
  8
Wood
 62
   250
420
  2301728
370
    15
100
AcDbVertex
100
AcDb2dVertex
 10
1.794970511243087
 20
3.213455956140428
 30
0.0
  0
VERTEX
  5
FC
330
F7
100
AcDbEntity
  8
Wood
 62
   250
420
  2301728
370
    15
100
AcDbVertex
100
AcDb2dVertex
 10
1.892591177258661
 20
3.229902772449072
 30
0.0
  0
SEQEND
  5
FD
330
F7
100
AcDbEntity
  8
Wood
 62
   250
420
  2301728
370
    15
  0
POLYLINE
  5
FE
330
C4
100
AcDbEntity
  8
Wood
 62
   250
420
  2301728
370
    15
100
AcDb2dPolyline
 66
     1
 10
0.0
 20
0.0
 30
0.0
  0
VERTEX
  5
FF
330
FE
100
AcDbEntity
  8
Wood
 62
   250
420
  2301728
370
    15
100
AcDbVertex
100
AcDb2dVertex
 10
2.045855983526154
 20
3.626448712454931
 30
0.0
  0
VERTEX
  5
100
330
FE
100
AcDbEntity
  8
Wood
 62
   250
420
  2301728
370
    15
100
AcDbVertex
100
AcDb2dVertex
 10
2.057782990646047
 20
3.618536642220811
 30
0.0
  0
VERTEX
  5
101
330
FE
100
AcDbEntity
  8
Wood
 62
   250
420
  2301728
370
    15
100
AcDbVertex
100
AcDb2dVertex
 10
1.96114802769825
 20
3.603791966819408
 30
0.0
  0
VERTEX
  5
102
330
FE
100
AcDbEntity
  8
Wood
 62
   250
420
  2301728
370
    15
100
AcDbVertex
100
AcDb2dVertex
 10
1.95948194909834
 20
3.621306351475091
 30
0.0
  0
VERTEX
  5
103
330
FE
100
AcDbEntity
  8
Wood
 62
   250
420
  2301728
370
    15
100
AcDbVertex
100
AcDb2dVertex
 10
2.057102615113914
 20
3.637753043734455
 30
0.0
  0
SEQEND
  5
104
330
FE
100
AcDbEntity
  8
Wood
 62
   250
420
  2301728
370
    15
  0
POLYLINE
  5
105
330
C4
100
AcDbEntity
  8
Wood
 62
   250
420
  2301728
370
    15
100
AcDb2dPolyline
 66
     1
 10
0.0
 20
0.0
 30
0.0
  0
VERTEX
  5
106
330
105
100
AcDbEntity
  8
Wood
 62
   250
420
  2301728
370
    15
100
AcDbVertex
100
AcDb2dVertex
 10
2.050575337482264
 20
3.490967432022115
 30
0.0
  0
VERTEX
  5
107
330
105
100
AcDbEntity
  8
Wood
 62
   250
420
  2301728
370
    15
100
AcDbVertex
100
AcDb2dVertex
 10
2.062502344602156
 20
3.483055361787971
 30
0.0
  0
VERTEX
  5
108
330
105
100
AcDbEntity
  8
Wood
 62
   250
420
  2301728
370
    15
100
AcDbVertex
100
AcDb2dVertex
 10
1.965867381654359
 20
3.468310686386581
 30
0.0
  0
VERTEX
  5
109
330
105
100
AcDbEntity
  8
Wood
 62
   250
420
  2301728
370
    15
100
AcDbVertex
100
AcDb2dVertex
 10
1.964198898900652
 20
3.485836967762111
 30
0.0
  0
VERTEX
  5
10A
330
105
100
AcDbEntity
  8
Wood
 62
   250
420
  2301728
370
    15
100
AcDbVertex
100
AcDb2dVertex
 10
2.061821969070024
 20
3.502283784070755
 30
0.0
  0
SEQEND
  5
10B
330
105
100
AcDbEntity
  8
Wood
 62
   250
420
  2301728
370
    15
  0
POLYLINE
  5
10C
330
C4
100
AcDbEntity
  8
Wood
 62
   250
420
  2301728
370
    15
100
AcDb2dPolyline
 66
     1
 10
0.0
 20
0.0
 30
0.0
  0
VERTEX
  5
10D
330
10C
100
AcDbEntity
  8
Wood
 62
   250
420
  2301728
370
    15
100
AcDbVertex
100
AcDb2dVertex
 10
2.054849922980995
 20
3.369011921002033
 30
0.0
  0
VERTEX
  5
10E
330
10C
100
AcDbEntity
  8
Wood
 62
   250
420
  2301728
370
    15
100
AcDbVertex
100
AcDb2dVertex
 10
2.066752975362508
 20
3.361099850767876
 30
0.0
  0
VERTEX
  5
10F
330
10C
100
AcDbEntity
  8
Wood
 62
   250
420
  2301728
370
    15
100
AcDbVertex
100
AcDb2dVertex
 10
1.970139562999268
 20
3.346367313239334
 30
0.0
  0
VERTEX
  5
110
330
10C
100
AcDbEntity
  8
Wood
 62
   250
420
  2301728
370
    15
100
AcDbVertex
100
AcDb2dVertex
 10
1.968473484399384
 20
3.363869553518775
 30
0.0
  0
VERTEX
  5
111
330
10C
100
AcDbEntity
  8
Wood
 62
   250
420
  2301728
370
    15
100
AcDbVertex
100
AcDb2dVertex
 10
2.066070108876703
 20
3.38032827305066
 30
0.0
  0
SEQEND
  5
112
330
10C
100
AcDbEntity
  8
Wood
 62
   250
420
  2301728
370
    15
  0
POLYLINE
  5
113
330
C4
100
AcDbEntity
  8
Wood
 62
   250
420
  2301728
370
    15
100
AcDb2dPolyline
 66
     1
 10
0.0
 20
0.0
 30
0.0
  0
VERTEX
  5
114
330
113
100
AcDbEntity
  8
Wood
 62
   250
420
  2301728
370
    15
100
AcDbVertex
100
AcDb2dVertex
 10
2.059098062787649
 20
3.247041985058975
 30
0.0
  0
VERTEX
  5
115
330
113
100
AcDbEntity
  8
Wood
 62
   250
420
  2301728
370
    15
100
AcDbVertex
100
AcDb2dVertex
 10
2.071001028369311
 20
3.239129914824831
 30
0.0
  0
VERTEX
  5
116
330
113
100
AcDbEntity
  8
Wood
 62
   250
420
  2301728
370
    15
100
AcDbVertex
100
AcDb2dVertex
 10
1.974390106959744
 20
3.224397260192568
 30
0.0
  0
VERTEX
  5
117
330
113
100
AcDbEntity
  8
Wood
 62
   250
420
  2301728
370
    15
100
AcDbVertex
100
AcDb2dVertex
 10
1.972721624206037
 20
3.241911520798971
 30
0.0
  0
VERTEX
  5
118
330
113
100
AcDbEntity
  8
Wood
 62
   250
420
  2301728
370
    15
100
AcDbVertex
100
AcDb2dVertex
 10
2.070344694375409
 20
3.258358337107615
 30
0.0
  0
SEQEND
  5
119
330
113
100
AcDbEntity
  8
Wood
 62
   250
420
  2301728
370
    15
  0
POLYLINE
  5
11A
330
C4
100
AcDbEntity
  8
Wood
 62
   250
420
  2301728
370
    15
100
AcDb2dPolyline
 66
     1
 10
0.0
 20
0.0
 30
0.0
  0
VERTEX
  5
11B
330
11A
100
AcDbEntity
  8
Wood
 62
   250
420
  2301728
370
    15
100
AcDbVertex
100
AcDb2dVertex
 10
2.223609500642902
 20
3.654904277113474
 30
0.0
  0
VERTEX
  5
11C
330
11A
100
AcDbEntity
  8
Wood
 62
   250
420
  2301728
370
    15
100
AcDbVertex
100
AcDb2dVertex
 10
2.235512466224564
 20
3.646992206879342
 30
0.0
  0
VERTEX
  5
11D
330
11A
100
AcDbEntity
  8
Wood
 62
   250
420
  2301728
370
    15
100
AcDbVertex
100
AcDb2dVertex
 10
2.138899140661175
 20
3.632247531477964
 30
0.0
  0
VERTEX
  5
11E
330
11A
100
AcDbEntity
  8
Wood
 62
   250
420
  2301728
370
    15
100
AcDbVertex
100
AcDb2dVertex
 10
2.13723306206129
 20
3.649773812853482
 30
0.0
  0
VERTEX
  5
11F
330
11A
100
AcDbEntity
  8
Wood
 62
   250
420
  2301728
370
    15
100
AcDbVertex
100
AcDb2dVertex
 10
2.234856132230662
 20
3.666220629162126
 30
0.0
  0
SEQEND
  5
120
330
11A
100
AcDbEntity
  8
Wood
 62
   250
420
  2301728
370
    15
  0
POLYLINE
  5
121
330
C4
100
AcDbEntity
  8
Wood
 62
   250
420
  2301728
370
    15
100
AcDb2dPolyline
 66
     1
 10
0.0
 20
0.0
 30
0.0
  0
VERTEX
  5
122
330
121
100
AcDbEntity
  8
Wood
 62
   250
420
  2301728
370
    15
100
AcDbVertex
100
AcDb2dVertex
 10
2.228328854599037
 20
3.519422996680658
 30
0.0
  0
VERTEX
  5
123
330
121
100
AcDbEntity
  8
Wood
 62
   250
420
  2301728
370
    15
100
AcDbVertex
100
AcDb2dVertex
 10
2.240255861718929
 20
3.511510926446514
 30
0.0
  0
VERTEX
  5
124
330
121
100
AcDbEntity
  8
Wood
 62
   250
420
  2301728
370
    15
100
AcDbVertex
100
AcDb2dVertex
 10
2.143618494617309
 20
3.496778271814251
 30
0.0
  0
VERTEX
  5
125
330
121
100
AcDbEntity
  8
Wood
 62
   250
420
  2301728
370
    15
100
AcDbVertex
100
AcDb2dVertex
 10
2.1419524160174
 20
3.514292532420654
 30
0.0
  0
VERTEX
  5
126
330
121
100
AcDbEntity
  8
Wood
 62
   250
420
  2301728
370
    15
100
AcDbVertex
100
AcDb2dVertex
 10
2.239573082032974
 20
3.530739348729311
 30
0.0
  0
SEQEND
  5
127
330
121
100
AcDbEntity
  8
Wood
 62
   250
420
  2301728
370
    15
  0
POLYLINE
  5
128
330
C4
100
AcDbEntity
  8
Wood
 62
   250
420
  2301728
370
    15
100
AcDb2dPolyline
 66
     1
 10
0.0
 20
0.0
 30
0.0
  0
VERTEX
  5
129
330
128
100
AcDbEntity
  8
Wood
 62
   250
420
  2301728
370
    15
100
AcDbVertex
100
AcDb2dVertex
 10
2.232601035943945
 20
3.397477102275856
 30
0.0
  0
VERTEX
  5
12A
330
128
100
AcDbEntity
  8
Wood
 62
   250
420
  2301728
370
    15
100
AcDbVertex
100
AcDb2dVertex
 10
2.244504001525582
 20
3.389565032041711
 30
0.0
  0
VERTEX
  5
12B
330
128
100
AcDbEntity
  8
Wood
 62
   250
420
  2301728
370
    15
100
AcDbVertex
100
AcDb2dVertex
 10
2.147869127426828
 20
3.374822760794144
 30
0.0
  0
VERTEX
  5
12C
330
128
100
AcDbEntity
  8
Wood
 62
   250
420
  2301728
370
    15
100
AcDbVertex
100
AcDb2dVertex
 10
2.146224597362309
 20
3.392325000631445
 30
0.0
  0
VERTEX
  5
12D
330
128
100
AcDbEntity
  8
Wood
 62
   250
420
  2301728
370
    15
100
AcDbVertex
100
AcDb2dVertex
 10
2.243847667531706
 20
3.408783837709203
 30
0.0
  0
SEQEND
  5
12E
330
128
100
AcDbEntity
  8
Wood
 62
   250
420
  2301728
370
    15
  0
POLYLINE
  5
12F
330
C4
100
AcDbEntity
  8
Wood
 62
   250
420
  2301728
370
    15
100
AcDb2dPolyline
 66
     1
 10
0.0
 20
0.0
 30
0.0
  0
VERTEX
  5
130
330
12F
100
AcDbEntity
  8
Wood
 62
   250
420
  2301728
370
    15
100
AcDbVertex
100
AcDb2dVertex
 10
2.236851579904422
 20
3.275509570486633
 30
0.0
  0
VERTEX
  5
131
330
12F
100
AcDbEntity
  8
Wood
 62
   250
420
  2301728
370
    15
100
AcDbVertex
100
AcDb2dVertex
 10
2.248778587024314
 20
3.267597500252514
 30
0.0
  0
VERTEX
  5
132
330
12F
100
AcDbEntity
  8
Wood
 62
   250
420
  2301728
370
    15
100
AcDbVertex
100
AcDb2dVertex
 10
2.152141219922694
 20
3.252852824851111
 30
0.0
  0
VERTEX
  5
133
330
12F
100
AcDbEntity
  8
Wood
 62
   250
420
  2301728
370
    15
100
AcDbVertex
100
AcDb2dVertex
 10
2.15049918286104
 20
3.270367085457514
 30
0.0
  0
VERTEX
  5
134
330
12F
100
AcDbEntity
  8
Wood
 62
   250
420
  2301728
370
    15
100
AcDbVertex
100
AcDb2dVertex
 10
2.248095807338359
 20
3.286813901766133
 30
0.0
  0
SEQEND
  5
135
330
12F
100
AcDbEntity
  8
Wood
 62
   250
420
  2301728
370
    15
  0
POLYLINE
  5
136
330
C4
100
AcDbEntity
  8
Wood
 62
   250
420
  2301728
370
    15
100
AcDb2dPolyline
 66
     1
 10
0.0
 20
0.0
 30
0.0
  0
VERTEX
  5
137
330
136
100
AcDbEntity
  8
Wood
 62
   250
420
  2301728
370
    15
100
AcDbVertex
100
AcDb2dVertex
 10
2.401360613605852
 20
3.683359841772017
 30
0.0
  0
VERTEX
  5
138
330
136
100
AcDbEntity
  8
Wood
 62
   250
420
  2301728
370
    15
100
AcDbVertex
100
AcDb2dVertex
 10
2.413287716279835
 20
3.675447896954893
 30
0.0
  0
VERTEX
  5
139
330
136
100
AcDbEntity
  8
Wood
 62
   250
420
  2301728
370
    15
100
AcDbVertex
100
AcDb2dVertex
 10
2.316652657777948
 20
3.66071511690561
 30
0.0
  0
VERTEX
  5
13A
330
136
100
AcDbEntity
  8
Wood
 62
   250
420
  2301728
370
    15
100
AcDbVertex
100
AcDb2dVertex
 10
2.314986579178038
 20
3.678229377512025
 30
0.0
  0
VERTEX
  5
13B
330
136
100
AcDbEntity
  8
Wood
 62
   250
420
  2301728
370
    15
100
AcDbVertex
100
AcDb2dVertex
 10
2.412607245193612
 20
3.694676193820669
 30
0.0
  0
SEQEND
  5
13C
330
136
100
AcDbEntity
  8
Wood
 62
   250
420
  2301728
370
    15
  0
POLYLINE
  5
13D
330
C4
100
AcDbEntity
  8
Wood
 62
   250
420
  2301728
370
    15
100
AcDb2dPolyline
 66
     1
 10
0.0
 20
0.0
 30
0.0
  0
VERTEX
  5
13E
330
13D
100
AcDbEntity
  8
Wood
 62
   250
420
  2301728
370
    15
100
AcDbVertex
100
AcDb2dVertex
 10
2.406079967561987
 20
3.547890582108316
 30
0.0
  0
VERTEX
  5
13F
330
13D
100
AcDbEntity
  8
Wood
 62
   250
420
  2301728
370
    15
100
AcDbVertex
100
AcDb2dVertex
 10
2.418006974681879
 20
3.539978511874185
 30
0.0
  0
VERTEX
  5
140
330
13D
100
AcDbEntity
  8
Wood
 62
   250
420
  2301728
370
    15
100
AcDbVertex
100
AcDb2dVertex
 10
2.321396053272312
 20
3.525233836472795
 30
0.0
  0
VERTEX
  5
141
330
13D
100
AcDbEntity
  8
Wood
 62
   250
420
  2301728
370
    15
100
AcDbVertex
100
AcDb2dVertex
 10
2.319751612056835
 20
3.542748097079222
 30
0.0
  0
VERTEX
  5
142
330
13D
100
AcDbEntity
  8
Wood
 62
   250
420
  2301728
370
    15
100
AcDbVertex
100
AcDb2dVertex
 10
2.417326694805852
 20
3.559194913387842
 30
0.0
  0
SEQEND
  5
143
330
13D
100
AcDbEntity
  8
Wood
 62
   250
420
  2301728
370
    15
  0
POLYLINE
  5
144
330
C4
100
AcDbEntity
  8
Wood
 62
   250
420
  2301728
370
    15
100
AcDb2dPolyline
 66
     1
 10
0.0
 20
0.0
 30
0.0
  0
VERTEX
  5
145
330
144
100
AcDbEntity
  8
Wood
 62
   250
420
  2301728
370
    15
100
AcDbVertex
100
AcDb2dVertex
 10
2.410330607001848
 20
3.425932666934399
 30
0.0
  0
VERTEX
  5
146
330
144
100
AcDbEntity
  8
Wood
 62
   250
420
  2301728
370
    15
100
AcDbVertex
100
AcDb2dVertex
 10
2.422257518642355
 20
3.418020596700254
 30
0.0
  0
VERTEX
  5
147
330
144
100
AcDbEntity
  8
Wood
 62
   250
420
  2301728
370
    15
100
AcDbVertex
100
AcDb2dVertex
 10
2.325644193078965
 20
3.403266304683572
 30
0.0
  0
VERTEX
  5
148
330
144
100
AcDbEntity
  8
Wood
 62
   250
420
  2301728
370
    15
100
AcDbVertex
100
AcDb2dVertex
 10
2.324023793401718
 20
3.420780565289988
 30
0.0
  0
VERTEX
  5
149
330
144
100
AcDbEntity
  8
Wood
 62
   250
420
  2301728
370
    15
100
AcDbVertex
100
AcDb2dVertex
 10
2.42162282203286
 20
3.437227381598644
 30
0.0
  0
SEQEND
  5
14A
330
144
100
AcDbEntity
  8
Wood
 62
   250
420
  2301728
370
    15
  0
POLYLINE
  5
14B
330
C4
100
AcDbEntity
  8
Wood
 62
   250
420
  2301728
370
    15
100
AcDb2dPolyline
 66
     1
 10
0.0
 20
0.0
 30
0.0
  0
VERTEX
  5
14C
330
14B
100
AcDbEntity
  8
Wood
 62
   250
420
  2301728
370
    15
100
AcDbVertex
100
AcDb2dVertex
 10
2.414602692867371
 20
3.303965135145151
 30
0.0
  0
VERTEX
  5
14D
330
14B
100
AcDbEntity
  8
Wood
 62
   250
420
  2301728
370
    15
100
AcDbVertex
100
AcDb2dVertex
 10
2.426529699987264
 20
3.296053064911032
 30
0.0
  0
VERTEX
  5
14E
330
14B
100
AcDbEntity
  8
Wood
 62
   250
420
  2301728
370
    15
100
AcDbVertex
100
AcDb2dVertex
 10
2.329894737039467
 20
3.281308389509667
 30
0.0
  0
VERTEX
  5
14F
330
14B
100
AcDbEntity
  8
Wood
 62
   250
420
  2301728
370
    15
100
AcDbVertex
100
AcDb2dVertex
 10
2.32827433736222
 20
3.298822650116057
 30
0.0
  0
VERTEX
  5
150
330
14B
100
AcDbEntity
  8
Wood
 62
   250
420
  2301728
370
    15
100
AcDbVertex
100
AcDb2dVertex
 10
2.425895003377768
 20
3.315281603512251
 30
0.0
  0
SEQEND
  5
151
330
14B
100
AcDbEntity
  8
Wood
 62
   250
420
  2301728
370
    15
  0
POLYLINE
  5
152
330
C4
100
AcDbEntity
  8
Wood
 62
   250
420
  2301728
370
    15
100
AcDb2dPolyline
 66
     1
 10
0.0
 20
0.0
 30
0.0
  0
VERTEX
  5
153
330
152
100
AcDbEntity
  8
Wood
 62
   250
420
  2301728
370
    15
100
AcDbVertex
100
AcDb2dVertex
 10
2.579114130722625
 20
3.711825023045864
 30
0.0
  0
VERTEX
  5
154
330
152
100
AcDbEntity
  8
Wood
 62
   250
420
  2301728
370
    15
100
AcDbVertex
100
AcDb2dVertex
 10
2.591065179380747
 20
3.703913078947797
 30
0.0
  0
VERTEX
  5
155
330
152
100
AcDbEntity
  8
Wood
 62
   250
420
  2301728
370
    15
100
AcDbVertex
100
AcDb2dVertex
 10
2.494406174894721
 20
3.689170681564153
 30
0.0
  0
VERTEX
  5
156
330
152
100
AcDbEntity
  8
Wood
 62
   250
420
  2301728
370
    15
100
AcDbVertex
100
AcDb2dVertex
 10
2.492785775217473
 20
3.706672921401441
 30
0.0
  0
VERTEX
  5
157
330
152
100
AcDbEntity
  8
Wood
 62
   250
420
  2301728
370
    15
100
AcDbVertex
100
AcDb2dVertex
 10
2.590382399694792
 20
3.723131758479212
 30
0.0
  0
SEQEND
  5
158
330
152
100
AcDbEntity
  8
Wood
 62
   250
420
  2301728
370
    15
  0
POLYLINE
  5
159
330
C4
100
AcDbEntity
  8
Wood
 62
   250
420
  2301728
370
    15
100
AcDb2dPolyline
 66
     1
 10
0.0
 20
0.0
 30
0.0
  0
VERTEX
  5
15A
330
159
100
AcDbEntity
  8
Wood
 62
   250
420
  2301728
370
    15
100
AcDbVertex
100
AcDb2dVertex
 10
2.583879163601396
 20
3.57634614676686
 30
0.0
  0
VERTEX
  5
15B
330
159
100
AcDbEntity
  8
Wood
 62
   250
420
  2301728
370
    15
100
AcDbVertex
100
AcDb2dVertex
 10
2.595806170721289
 20
3.568434076532728
 30
0.0
  0
VERTEX
  5
15C
330
159
100
AcDbEntity
  8
Wood
 62
   250
420
  2301728
370
    15
100
AcDbVertex
100
AcDb2dVertex
 10
2.499123124697007
 20
3.553689401131338
 30
0.0
  0
VERTEX
  5
15D
330
159
100
AcDbEntity
  8
Wood
 62
   250
420
  2301728
370
    15
100
AcDbVertex
100
AcDb2dVertex
 10
2.497505226855158
 20
3.571203784521319
 30
0.0
  0
VERTEX
  5
15E
330
159
100
AcDbEntity
  8
Wood
 62
   250
420
  2301728
370
    15
100
AcDbVertex
100
AcDb2dVertex
 10
2.595125795189157
 20
3.587650478046385
 30
0.0
  0
SEQEND
  5
15F
330
159
100
AcDbEntity
  8
Wood
 62
   250
420
  2301728
370
    15
  0
POLYLINE
  5
160
330
C4
100
AcDbEntity
  8
Wood
 62
   250
420
  2301728
370
    15
100
AcDb2dPolyline
 66
     1
 10
0.0
 20
0.0
 30
0.0
  0
VERTEX
  5
161
330
160
100
AcDbEntity
  8
Wood
 62
   250
420
  2301728
370
    15
100
AcDbVertex
100
AcDb2dVertex
 10
2.588105666023643
 20
3.454388231592942
 30
0.0
  0
VERTEX
  5
162
330
160
100
AcDbEntity
  8
Wood
 62
   250
420
  2301728
370
    15
100
AcDbVertex
100
AcDb2dVertex
 10
2.600056714681765
 20
3.446476280991495
 30
0.0
  0
VERTEX
  5
163
330
160
100
AcDbEntity
  8
Wood
 62
   250
420
  2301728
370
    15
100
AcDbVertex
100
AcDb2dVertex
 10
2.503397710195739
 20
3.431731485957407
 30
0.0
  0
VERTEX
  5
164
330
160
100
AcDbEntity
  8
Wood
 62
   250
420
  2301728
370
    15
100
AcDbVertex
100
AcDb2dVertex
 10
2.501777310518492
 20
3.449236129948531
 30
0.0
  0
VERTEX
  5
165
330
160
100
AcDbEntity
  8
Wood
 62
   250
420
  2301728
370
    15
100
AcDbVertex
100
AcDb2dVertex
 10
2.599376339149633
 20
3.465704583641607
 30
0.0
  0
SEQEND
  5
166
330
160
100
AcDbEntity
  8
Wood
 62
   250
420
  2301728
370
    15
  0
POLYLINE
  5
167
330
C4
100
AcDbEntity
  8
Wood
 62
   250
420
  2301728
370
    15
100
AcDb2dPolyline
 66
     1
 10
0.0
 20
0.0
 30
0.0
  0
VERTEX
  5
168
330
167
100
AcDbEntity
  8
Wood
 62
   250
420
  2301728
370
    15
100
AcDbVertex
100
AcDb2dVertex
 10
2.592401888906781
 20
3.33242069980372
 30
0.0
  0
VERTEX
  5
169
330
167
100
AcDbEntity
  8
Wood
 62
   250
420
  2301728
370
    15
100
AcDbVertex
100
AcDb2dVertex
 10
2.604304854488444
 20
3.324508629569575
 30
0.0
  0
VERTEX
  5
16A
330
167
100
AcDbEntity
  8
Wood
 62
   250
420
  2301728
370
    15
100
AcDbVertex
100
AcDb2dVertex
 10
2.507645850002392
 20
3.309763954168185
 30
0.0
  0
VERTEX
  5
16B
330
167
100
AcDbEntity
  8
Wood
 62
   250
420
  2301728
370
    15
100
AcDbVertex
100
AcDb2dVertex
 10
2.506027854478968
 20
3.327290235543728
 30
0.0
  0
VERTEX
  5
16C
330
167
100
AcDbEntity
  8
Wood
 62
   250
420
  2301728
370
    15
100
AcDbVertex
100
AcDb2dVertex
 10
2.603648620857534
 20
3.343737051852359
 30
0.0
  0
SEQEND
  5
16D
330
167
100
AcDbEntity
  8
Wood
 62
   250
420
  2301728
370
    15
  0
POLYLINE
  5
16E
330
C4
100
AcDbEntity
  8
Wood
 62
   250
420
  2301728
370
    15
100
AcDb2dPolyline
 66
     1
 10
0.0
 20
0.0
 30
0.0
  0
VERTEX
  5
16F
330
16E
100
AcDbEntity
  8
Wood
 62
   250
420
  2301728
370
    15
100
AcDbVertex
100
AcDb2dVertex
 10
1.894165898013246
 20
3.531491848876158
 30
0.0
  0
VERTEX
  5
170
330
16E
100
AcDbEntity
  8
Wood
 62
   250
420
  2301728
370
    15
100
AcDbVertex
100
AcDb2dVertex
 10
1.906092905133139
 20
3.523579778642013
 30
0.0
  0
VERTEX
  5
171
330
16E
100
AcDbEntity
  8
Wood
 62
   250
420
  2301728
370
    15
100
AcDbVertex
100
AcDb2dVertex
 10
1.809455538031519
 20
3.508847124009751
 30
0.0
  0
VERTEX
  5
172
330
16E
100
AcDbEntity
  8
Wood
 62
   250
420
  2301728
370
    15
100
AcDbVertex
100
AcDb2dVertex
 10
1.807823117585157
 20
3.526361384616153
 30
0.0
  0
VERTEX
  5
173
330
16E
100
AcDbEntity
  8
Wood
 62
   250
420
  2301728
370
    15
100
AcDbVertex
100
AcDb2dVertex
 10
1.905410208171184
 20
3.542808200924797
 30
0.0
  0
SEQEND
  5
174
330
16E
100
AcDbEntity
  8
Wood
 62
   250
420
  2301728
370
    15
  0
POLYLINE
  5
175
330
C4
100
AcDbEntity
  8
Wood
 62
   250
420
  2301728
370
    15
100
AcDb2dPolyline
 66
     1
 10
0.0
 20
0.0
 30
0.0
  0
VERTEX
  5
176
330
175
100
AcDbEntity
  8
Wood
 62
   250
420
  2301728
370
    15
100
AcDbVertex
100
AcDb2dVertex
 10
1.898673686432883
 20
3.40224453930845
 30
0.0
  0
VERTEX
  5
177
330
175
100
AcDbEntity
  8
Wood
 62
   250
420
  2301728
370
    15
100
AcDbVertex
100
AcDb2dVertex
 10
1.910600693552775
 20
3.394332469074318
 30
0.0
  0
VERTEX
  5
178
330
175
100
AcDbEntity
  8
Wood
 62
   250
420
  2301728
370
    15
100
AcDbVertex
100
AcDb2dVertex
 10
1.813963326451155
 20
3.379587793672929
 30
0.0
  0
VERTEX
  5
179
330
175
100
AcDbEntity
  8
Wood
 62
   250
420
  2301728
370
    15
100
AcDbVertex
100
AcDb2dVertex
 10
1.812330906004793
 20
3.397102054279344
 30
0.0
  0
VERTEX
  5
17A
330
175
100
AcDbEntity
  8
Wood
 62
   250
420
  2301728
370
    15
100
AcDbVertex
100
AcDb2dVertex
 10
1.90996599694328
 20
3.413548870587988
 30
0.0
  0
SEQEND
  5
17B
330
175
100
AcDbEntity
  8
Wood
 62
   250
420
  2301728
370
    15
  0
POLYLINE
  5
17C
330
C4
100
AcDbEntity
  8
Wood
 62
   250
420
  2301728
370
    15
100
AcDb2dPolyline
 66
     1
 10
0.0
 20
0.0
 30
0.0
  0
VERTEX
  5
17D
330
17C
100
AcDbEntity
  8
Wood
 62
   250
420
  2301728
370
    15
100
AcDbVertex
100
AcDb2dVertex
 10
1.902945867777766
 20
3.280358748749247
 30
0.0
  0
VERTEX
  5
17E
330
17C
100
AcDbEntity
  8
Wood
 62
   250
420
  2301728
370
    15
100
AcDbVertex
100
AcDb2dVertex
 10
1.914896916435914
 20
3.272446678515103
 30
0.0
  0
VERTEX
  5
17F
330
17C
100
AcDbEntity
  8
Wood
 62
   250
420
  2301728
370
    15
100
AcDbVertex
100
AcDb2dVertex
 10
1.818247528565154
 20
3.257702117977563
 30
0.0
  0
VERTEX
  5
180
330
17C
100
AcDbEntity
  8
Wood
 62
   250
420
  2301728
370
    15
100
AcDbVertex
100
AcDb2dVertex
 10
1.81658144996527
 20
3.275204358257017
 30
0.0
  0
VERTEX
  5
181
330
17C
100
AcDbEntity
  8
Wood
 62
   250
420
  2301728
370
    15
100
AcDbVertex
100
AcDb2dVertex
 10
1.914192499365527
 20
3.291675100797875
 30
0.0
  0
SEQEND
  5
182
330
17C
100
AcDbEntity
  8
Wood
 62
   250
420
  2301728
370
    15
  0
POLYLINE
  5
183
330
C4
100
AcDbEntity
  8
Wood
 62
   250
420
  2301728
370
    15
100
AcDb2dPolyline
 66
     1
 10
0.0
 20
0.0
 30
0.0
  0
VERTEX
  5
184
330
183
100
AcDbEntity
  8
Wood
 62
   250
420
  2301728
370
    15
100
AcDbVertex
100
AcDb2dVertex
 10
2.064146785817659
 20
3.691985945691827
 30
0.0
  0
VERTEX
  5
185
330
183
100
AcDbEntity
  8
Wood
 62
   250
420
  2301728
370
    15
100
AcDbVertex
100
AcDb2dVertex
 10
2.076073792937551
 20
3.684073875457695
 30
0.0
  0
VERTEX
  5
186
330
183
100
AcDbEntity
  8
Wood
 62
   250
420
  2301728
370
    15
100
AcDbVertex
100
AcDb2dVertex
 10
1.979436425835906
 20
3.669331604210129
 30
0.0
  0
VERTEX
  5
187
330
183
100
AcDbEntity
  8
Wood
 62
   250
420
  2301728
370
    15
100
AcDbVertex
100
AcDb2dVertex
 10
1.977770347236022
 20
3.686857885585646
 30
0.0
  0
VERTEX
  5
188
330
183
100
AcDbEntity
  8
Wood
 62
   250
420
  2301728
370
    15
100
AcDbVertex
100
AcDb2dVertex
 10
2.075391013251571
 20
3.703302297740493
 30
0.0
  0
SEQEND
  5
189
330
183
100
AcDbEntity
  8
Wood
 62
   250
420
  2301728
370
    15
  0
POLYLINE
  5
18A
330
C4
100
AcDbEntity
  8
Wood
 62
   250
420
  2301728
370
    15
100
AcDb2dPolyline
 66
     1
 10
0.0
 20
0.0
 30
0.0
  0
VERTEX
  5
18B
330
18A
100
AcDbEntity
  8
Wood
 62
   250
420
  2301728
370
    15
100
AcDbVertex
100
AcDb2dVertex
 10
2.06865457423727
 20
3.562729019508854
 30
0.0
  0
VERTEX
  5
18C
330
18A
100
AcDbEntity
  8
Wood
 62
   250
420
  2301728
370
    15
100
AcDbVertex
100
AcDb2dVertex
 10
2.080581581357162
 20
3.554816949274696
 30
0.0
  0
VERTEX
  5
18D
330
18A
100
AcDbEntity
  8
Wood
 62
   250
420
  2301728
370
    15
100
AcDbVertex
100
AcDb2dVertex
 10
1.983944214255542
 20
3.540072273873307
 30
0.0
  0
VERTEX
  5
18E
330
18A
100
AcDbEntity
  8
Wood
 62
   250
420
  2301728
370
    15
100
AcDbVertex
100
AcDb2dVertex
 10
1.982278135655658
 20
3.557598555248837
 30
0.0
  0
VERTEX
  5
18F
330
18A
100
AcDbEntity
  8
Wood
 62
   250
420
  2301728
370
    15
100
AcDbVertex
100
AcDb2dVertex
 10
2.079898801671207
 20
3.574045371557481
 30
0.0
  0
SEQEND
  5
190
330
18A
100
AcDbEntity
  8
Wood
 62
   250
420
  2301728
370
    15
  0
POLYLINE
  5
191
330
C4
100
AcDbEntity
  8
Wood
 62
   250
420
  2301728
370
    15
100
AcDb2dPolyline
 66
     1
 10
0.0
 20
0.0
 30
0.0
  0
VERTEX
  5
192
330
191
100
AcDbEntity
  8
Wood
 62
   250
420
  2301728
370
    15
100
AcDbVertex
100
AcDb2dVertex
 10
2.073162362656906
 20
3.433469808476136
 30
0.0
  0
VERTEX
  5
193
330
191
100
AcDbEntity
  8
Wood
 62
   250
420
  2301728
370
    15
100
AcDbVertex
100
AcDb2dVertex
 10
2.085111007161206
 20
3.425557618937887
 30
0.0
  0
VERTEX
  5
194
330
191
100
AcDbEntity
  8
Wood
 62
   250
420
  2301728
370
    15
100
AcDbVertex
100
AcDb2dVertex
 10
1.988452002675179
 20
3.410824964305612
 30
0.0
  0
VERTEX
  5
195
330
191
100
AcDbEntity
  8
Wood
 62
   250
420
  2301728
370
    15
100
AcDbVertex
100
AcDb2dVertex
 10
1.986834007151755
 20
3.428339224912027
 30
0.0
  0
VERTEX
  5
196
330
191
100
AcDbEntity
  8
Wood
 62
   250
420
  2301728
370
    15
100
AcDbVertex
100
AcDb2dVertex
 10
2.084406590090844
 20
3.444786041220671
 30
0.0
  0
SEQEND
  5
197
330
191
100
AcDbEntity
  8
Wood
 62
   250
420
  2301728
370
    15
  0
POLYLINE
  5
198
330
C4
100
AcDbEntity
  8
Wood
 62
   250
420
  2301728
370
    15
100
AcDb2dPolyline
 66
     1
 10
0.0
 20
0.0
 30
0.0
  0
VERTEX
  5
199
330
198
100
AcDbEntity
  8
Wood
 62
   250
420
  2301728
370
    15
100
AcDbVertex
100
AcDb2dVertex
 10
2.077410502463585
 20
3.311595919381931
 30
0.0
  0
VERTEX
  5
19A
330
198
100
AcDbEntity
  8
Wood
 62
   250
420
  2301728
370
    15
100
AcDbVertex
100
AcDb2dVertex
 10
2.089337509583477
 20
3.303683849147786
 30
0.0
  0
VERTEX
  5
19B
330
198
100
AcDbEntity
  8
Wood
 62
   250
420
  2301728
370
    15
100
AcDbVertex
100
AcDb2dVertex
 10
1.992702546635655
 20
3.288939173746409
 30
0.0
  0
VERTEX
  5
19C
330
198
100
AcDbEntity
  8
Wood
 62
   250
420
  2301728
370
    15
100
AcDbVertex
100
AcDb2dVertex
 10
1.991082146958433
 20
3.306441413583671
 30
0.0
  0
VERTEX
  5
19D
330
198
100
AcDbEntity
  8
Wood
 62
   250
420
  2301728
370
    15
100
AcDbVertex
100
AcDb2dVertex
 10
2.088705217127805
 20
3.322912271430571
 30
0.0
  0
SEQEND
  5
19E
330
198
100
AcDbEntity
  8
Wood
 62
   250
420
  2301728
370
    15
  0
POLYLINE
  5
19F
330
C4
100
AcDbEntity
  8
Wood
 62
   250
420
  2301728
370
    15
100
AcDb2dPolyline
 66
     1
 10
0.0
 20
0.0
 30
0.0
  0
VERTEX
  5
1A0
330
19F
100
AcDbEntity
  8
Wood
 62
   250
420
  2301728
370
    15
100
AcDbVertex
100
AcDb2dVertex
 10
2.238587378965222
 20
3.723225520478334
 30
0.0
  0
VERTEX
  5
1A1
330
19F
100
AcDbEntity
  8
Wood
 62
   250
420
  2301728
370
    15
100
AcDbVertex
100
AcDb2dVertex
 10
2.250562469161574
 20
3.715313450244214
 30
0.0
  0
VERTEX
  5
1A2
330
19F
100
AcDbEntity
  8
Wood
 62
   250
420
  2301728
370
    15
100
AcDbVertex
100
AcDb2dVertex
 10
2.153925102059955
 20
3.700568774842799
 30
0.0
  0
VERTEX
  5
1A3
330
19F
100
AcDbEntity
  8
Wood
 62
   250
420
  2301728
370
    15
100
AcDbVertex
100
AcDb2dVertex
 10
2.152259023460071
 20
3.718083035449202
 30
0.0
  0
VERTEX
  5
1A4
330
19F
100
AcDbEntity
  8
Wood
 62
   250
420
  2301728
370
    15
100
AcDbVertex
100
AcDb2dVertex
 10
2.249882093629442
 20
3.734529851757859
 30
0.0
  0
SEQEND
  5
1A5
330
19F
100
AcDbEntity
  8
Wood
 62
   250
420
  2301728
370
    15
  0
POLYLINE
  5
1A6
330
C4
100
AcDbEntity
  8
Wood
 62
   250
420
  2301728
370
    15
100
AcDb2dPolyline
 66
     1
 10
0.0
 20
0.0
 30
0.0
  0
VERTEX
  5
1A7
330
1A6
100
AcDbEntity
  8
Wood
 62
   250
420
  2301728
370
    15
100
AcDbVertex
100
AcDb2dVertex
 10
2.243119208923089
 20
3.593966190141524
 30
0.0
  0
VERTEX
  5
1A8
330
1A6
100
AcDbEntity
  8
Wood
 62
   250
420
  2301728
370
    15
100
AcDbVertex
100
AcDb2dVertex
 10
2.255046307599539
 20
3.58605411990738
 30
0.0
  0
VERTEX
  5
1A9
330
1A6
100
AcDbEntity
  8
Wood
 62
   250
420
  2301728
370
    15
100
AcDbVertex
100
AcDb2dVertex
 10
2.158411253095184
 20
3.57130944450599
 30
0.0
  0
VERTEX
  5
1AA
330
1A6
100
AcDbEntity
  8
Wood
 62
   250
420
  2301728
370
    15
100
AcDbVertex
100
AcDb2dVertex
 10
2.156766811879682
 20
3.588823705112405
 30
0.0
  0
VERTEX
  5
1AB
330
1A6
100
AcDbEntity
  8
Wood
 62
   250
420
  2301728
370
    15
100
AcDbVertex
100
AcDb2dVertex
 10
2.254389882049079
 20
3.605282542190164
 30
0.0
  0
SEQEND
  5
1AC
330
1A6
100
AcDbEntity
  8
Wood
 62
   250
420
  2301728
370
    15
  0
POLYLINE
  5
1AD
330
C4
100
AcDbEntity
  8
Wood
 62
   250
420
  2301728
370
    15
100
AcDb2dPolyline
 66
     1
 10
0.0
 20
0.0
 30
0.0
  0
VERTEX
  5
1AE
330
1AD
100
AcDbEntity
  8
Wood
 62
   250
420
  2301728
370
    15
100
AcDbVertex
100
AcDb2dVertex
 10
2.247651038880955
 20
3.464706859804702
 30
0.0
  0
VERTEX
  5
1AF
330
1AD
100
AcDbEntity
  8
Wood
 62
   250
420
  2301728
370
    15
100
AcDbVertex
100
AcDb2dVertex
 10
2.259602087539077
 20
3.45679478957057
 30
0.0
  0
VERTEX
  5
1B0
330
1AD
100
AcDbEntity
  8
Wood
 62
   250
420
  2301728
370
    15
100
AcDbVertex
100
AcDb2dVertex
 10
2.162940678899228
 20
3.44205011416918
 30
0.0
  0
VERTEX
  5
1B1
330
1AD
100
AcDbEntity
  8
Wood
 62
   250
420
  2301728
370
    15
100
AcDbVertex
100
AcDb2dVertex
 10
2.161274600299319
 20
3.459566778929406
 30
0.0
  0
VERTEX
  5
1B2
330
1AD
100
AcDbEntity
  8
Wood
 62
   250
420
  2301728
370
    15
100
AcDbVertex
100
AcDb2dVertex
 10
2.258919307853123
 20
3.476023332232469
 30
0.0
  0
SEQEND
  5
1B3
330
1AD
100
AcDbEntity
  8
Wood
 62
   250
420
  2301728
370
    15
  0
POLYLINE
  5
1B4
330
C4
100
AcDbEntity
  8
Wood
 62
   250
420
  2301728
370
    15
100
AcDb2dPolyline
 66
     1
 10
0.0
 20
0.0
 30
0.0
  0
VERTEX
  5
1B5
330
1B4
100
AcDbEntity
  8
Wood
 62
   250
420
  2301728
370
    15
100
AcDbVertex
100
AcDb2dVertex
 10
2.251899178687609
 20
3.342833207029066
 30
0.0
  0
VERTEX
  5
1B6
330
1B4
100
AcDbEntity
  8
Wood
 62
   250
420
  2301728
370
    15
100
AcDbVertex
100
AcDb2dVertex
 10
2.263826185807501
 20
3.33492101978047
 30
0.0
  0
VERTEX
  5
1B7
330
1B4
100
AcDbEntity
  8
Wood
 62
   250
420
  2301728
370
    15
100
AcDbVertex
100
AcDb2dVertex
 10
2.167191222859704
 20
3.320176344379092
 30
0.0
  0
VERTEX
  5
1B8
330
1B4
100
AcDbEntity
  8
Wood
 62
   250
420
  2301728
370
    15
100
AcDbVertex
100
AcDb2dVertex
 10
2.165570823182457
 20
3.33767858421638
 30
0.0
  0
VERTEX
  5
1B9
330
1B4
100
AcDbEntity
  8
Wood
 62
   250
420
  2301728
370
    15
100
AcDbVertex
100
AcDb2dVertex
 10
2.263145810275369
 20
3.354137421294139
 30
0.0
  0
SEQEND
  5
1BA
330
1B4
100
AcDbEntity
  8
Wood
 62
   250
420
  2301728
370
    15
  0
POLYLINE
  5
1BB
330
C4
100
AcDbEntity
  8
Wood
 62
   250
420
  2301728
370
    15
100
AcDb2dPolyline
 66
     1
 10
0.0
 20
0.0
 30
0.0
  0
VERTEX
  5
1BC
330
1BB
100
AcDbEntity
  8
Wood
 62
   250
420
  2301728
370
    15
100
AcDbVertex
100
AcDb2dVertex
 10
2.413100096727476
 20
3.754450670341902
 30
0.0
  0
VERTEX
  5
1BD
330
1BB
100
AcDbEntity
  8
Wood
 62
   250
420
  2301728
370
    15
100
AcDbVertex
100
AcDb2dVertex
 10
2.425027103847368
 20
3.746538727320664
 30
0.0
  0
VERTEX
  5
1BE
330
1BB
100
AcDbEntity
  8
Wood
 62
   250
420
  2301728
370
    15
100
AcDbVertex
100
AcDb2dVertex
 10
2.328392140899571
 20
3.731805945475495
 30
0.0
  0
VERTEX
  5
1BF
330
1BB
100
AcDbEntity
  8
Wood
 62
   250
420
  2301728
370
    15
100
AcDbVertex
100
AcDb2dVertex
 10
2.326747699684094
 20
3.749320206081923
 30
0.0
  0
VERTEX
  5
1C0
330
1BB
100
AcDbEntity
  8
Wood
 62
   250
420
  2301728
370
    15
100
AcDbVertex
100
AcDb2dVertex
 10
2.424370865687529
 20
3.765767022390542
 30
0.0
  0
SEQEND
  5
1C1
330
1BB
100
AcDbEntity
  8
Wood
 62
   250
420
  2301728
370
    15
  0
POLYLINE
  5
1C2
330
C4
100
AcDbEntity
  8
Wood
 62
   250
420
  2301728
370
    15
100
AcDb2dPolyline
 66
     1
 10
0.0
 20
0.0
 30
0.0
  0
VERTEX
  5
1C3
330
1C2
100
AcDbEntity
  8
Wood
 62
   250
420
  2301728
370
    15
100
AcDbVertex
100
AcDb2dVertex
 10
2.417607885147112
 20
3.625203360774208
 30
0.0
  0
VERTEX
  5
1C4
330
1C2
100
AcDbEntity
  8
Wood
 62
   250
420
  2301728
370
    15
100
AcDbVertex
100
AcDb2dVertex
 10
2.429534892267005
 20
3.617291414487909
 30
0.0
  0
VERTEX
  5
1C5
330
1C2
100
AcDbEntity
  8
Wood
 62
   250
420
  2301728
370
    15
100
AcDbVertex
100
AcDb2dVertex
 10
2.332899929319208
 20
3.60254661513866
 30
0.0
  0
VERTEX
  5
1C6
330
1C2
100
AcDbEntity
  8
Wood
 62
   250
420
  2301728
370
    15
100
AcDbVertex
100
AcDb2dVertex
 10
2.331255488103731
 20
3.620060875745089
 30
0.0
  0
VERTEX
  5
1C7
330
1C2
100
AcDbEntity
  8
Wood
 62
   250
420
  2301728
370
    15
100
AcDbVertex
100
AcDb2dVertex
 10
2.428854516734873
 20
3.636507692053732
 30
0.0
  0
SEQEND
  5
1C8
330
1C2
100
AcDbEntity
  8
Wood
 62
   250
420
  2301728
370
    15
  0
POLYLINE
  5
1C9
330
C4
100
AcDbEntity
  8
Wood
 62
   250
420
  2301728
370
    15
100
AcDb2dPolyline
 66
     1
 10
0.0
 20
0.0
 30
0.0
  0
VERTEX
  5
1CA
330
1C9
100
AcDbEntity
  8
Wood
 62
   250
420
  2301728
370
    15
100
AcDbVertex
100
AcDb2dVertex
 10
2.422115673566749
 20
3.495944030437386
 30
0.0
  0
VERTEX
  5
1CB
330
1C9
100
AcDbEntity
  8
Wood
 62
   250
420
  2301728
370
    15
100
AcDbVertex
100
AcDb2dVertex
 10
2.434042680686642
 20
3.488031960203254
 30
0.0
  0
VERTEX
  5
1CC
330
1C9
100
AcDbEntity
  8
Wood
 62
   250
420
  2301728
370
    15
100
AcDbVertex
100
AcDb2dVertex
 10
2.337407717738845
 20
3.473289688955674
 30
0.0
  0
VERTEX
  5
1CD
330
1C9
100
AcDbEntity
  8
Wood
 62
   250
420
  2301728
370
    15
100
AcDbVertex
100
AcDb2dVertex
 10
2.335787318061597
 20
3.490803949562077
 30
0.0
  0
VERTEX
  5
1CE
330
1C9
100
AcDbEntity
  8
Wood
 62
   250
420
  2301728
370
    15
100
AcDbVertex
100
AcDb2dVertex
 10
2.433407984077171
 20
3.507250765870733
 30
0.0
  0
SEQEND
  5
1CF
330
1C9
100
AcDbEntity
  8
Wood
 62
   250
420
  2301728
370
    15
  0
POLYLINE
  5
1D0
330
C4
100
AcDbEntity
  8
Wood
 62
   250
420
  2301728
370
    15
100
AcDb2dPolyline
 66
     1
 10
0.0
 20
0.0
 30
0.0
  0
VERTEX
  5
1D1
330
1D0
100
AcDbEntity
  8
Wood
 62
   250
420
  2301728
370
    15
100
AcDbVertex
100
AcDb2dVertex
 10
2.426390354950551
 20
3.374058239878182
 30
0.0
  0
VERTEX
  5
1D2
330
1D0
100
AcDbEntity
  8
Wood
 62
   250
420
  2301728
370
    15
100
AcDbVertex
100
AcDb2dVertex
 10
2.43831495821784
 20
3.366146169644063
 30
0.0
  0
VERTEX
  5
1D3
330
1D0
100
AcDbEntity
  8
Wood
 62
   250
420
  2301728
370
    15
100
AcDbVertex
100
AcDb2dVertex
 10
2.341679899083753
 20
3.351413515011775
 30
0.0
  0
VERTEX
  5
1D4
330
1D0
100
AcDbEntity
  8
Wood
 62
   250
420
  2301728
370
    15
100
AcDbVertex
100
AcDb2dVertex
 10
2.340013820483844
 20
3.368918276676304
 30
0.0
  0
VERTEX
  5
1D5
330
1D0
100
AcDbEntity
  8
Wood
 62
   250
420
  2301728
370
    15
100
AcDbVertex
100
AcDb2dVertex
 10
2.437634486499418
 20
3.385374591926822
 30
0.0
  0
SEQEND
  5
1D6
330
1D0
100
AcDbEntity
  8
Wood
 62
   250
420
  2301728
370
    15
  0
POLYLINE
  5
1D7
330
C4
100
AcDbEntity
  8
Wood
 62
   250
420
  2301728
370
    15
100
AcDb2dPolyline
 66
     1
 10
0.0
 20
0.0
 30
0.0
  0
VERTEX
  5
1D8
330
1D7
100
AcDbEntity
  8
Wood
 62
   250
420
  2301728
370
    15
100
AcDbVertex
100
AcDb2dVertex
 10
2.587588872908832
 20
3.785687840974585
 30
0.0
  0
VERTEX
  5
1D9
330
1D7
100
AcDbEntity
  8
Wood
 62
   250
420
  2301728
370
    15
100
AcDbVertex
100
AcDb2dVertex
 10
2.599515780071417
 20
3.777775770740466
 30
0.0
  0
VERTEX
  5
1DA
330
1D7
100
AcDbEntity
  8
Wood
 62
   250
420
  2301728
370
    15
100
AcDbVertex
100
AcDb2dVertex
 10
2.50288081712362
 20
3.763031222968607
 30
0.0
  0
VERTEX
  5
1DB
330
1D7
100
AcDbEntity
  8
Wood
 62
   250
420
  2301728
370
    15
100
AcDbVertex
100
AcDb2dVertex
 10
2.501214738523711
 20
3.780557504786871
 30
0.0
  0
VERTEX
  5
1DC
330
1D7
100
AcDbEntity
  8
Wood
 62
   250
420
  2301728
370
    15
100
AcDbVertex
100
AcDb2dVertex
 10
2.598835404539285
 20
3.797004193023225
 30
0.0
  0
SEQEND
  5
1DD
330
1D7
100
AcDbEntity
  8
Wood
 62
   250
420
  2301728
370
    15
  0
POLYLINE
  5
1DE
330
C4
100
AcDbEntity
  8
Wood
 62
   250
420
  2301728
370
    15
100
AcDb2dPolyline
 66
     1
 10
0.0
 20
0.0
 30
0.0
  0
VERTEX
  5
1DF
330
1DE
100
AcDbEntity
  8
Wood
 62
   250
420
  2301728
370
    15
100
AcDbVertex
100
AcDb2dVertex
 10
2.592096561371161
 20
3.656428510637763
 30
0.0
  0
VERTEX
  5
1E0
330
1DE
100
AcDbEntity
  8
Wood
 62
   250
420
  2301728
370
    15
100
AcDbVertex
100
AcDb2dVertex
 10
2.604023568491054
 20
3.648516440403644
 30
0.0
  0
VERTEX
  5
1E1
330
1DE
100
AcDbEntity
  8
Wood
 62
   250
420
  2301728
370
    15
100
AcDbVertex
100
AcDb2dVertex
 10
2.507388605543257
 20
3.633783910135839
 30
0.0
  0
VERTEX
  5
1E2
330
1DE
100
AcDbEntity
  8
Wood
 62
   250
420
  2301728
370
    15
100
AcDbVertex
100
AcDb2dVertex
 10
2.505722526943348
 20
3.651300450531595
 30
0.0
  0
VERTEX
  5
1E3
330
1DE
100
AcDbEntity
  8
Wood
 62
   250
420
  2301728
370
    15
100
AcDbVertex
100
AcDb2dVertex
 10
2.603343192958921
 20
3.667744862686416
 30
0.0
  0
SEQEND
  5
1E4
330
1DE
100
AcDbEntity
  8
Wood
 62
   250
420
  2301728
370
    15
  0
POLYLINE
  5
1E5
330
C4
100
AcDbEntity
  8
Wood
 62
   250
420
  2301728
370
    15
100
AcDb2dPolyline
 66
     1
 10
0.0
 20
0.0
 30
0.0
  0
VERTEX
  5
1E6
330
1E5
100
AcDbEntity
  8
Wood
 62
   250
420
  2301728
370
    15
100
AcDbVertex
100
AcDb2dVertex
 10
2.596604449975833
 20
3.527171584454777
 30
0.0
  0
VERTEX
  5
1E7
330
1E5
100
AcDbEntity
  8
Wood
 62
   250
420
  2301728
370
    15
100
AcDbVertex
100
AcDb2dVertex
 10
2.60853135691069
 20
3.519259514220645
 30
0.0
  0
VERTEX
  5
1E8
330
1E5
100
AcDbEntity
  8
Wood
 62
   250
420
  2301728
370
    15
100
AcDbVertex
100
AcDb2dVertex
 10
2.511896393962893
 20
3.50452685958837
 30
0.0
  0
VERTEX
  5
1E9
330
1E5
100
AcDbEntity
  8
Wood
 62
   250
420
  2301728
370
    15
100
AcDbVertex
100
AcDb2dVertex
 10
2.510275994285646
 20
3.522041120194798
 30
0.0
  0
VERTEX
  5
1EA
330
1E5
100
AcDbEntity
  8
Wood
 62
   250
420
  2301728
370
    15
100
AcDbVertex
100
AcDb2dVertex
 10
2.607850981378533
 20
3.538487936503417
 30
0.0
  0
SEQEND
  5
1EB
330
1E5
100
AcDbEntity
  8
Wood
 62
   250
420
  2301728
370
    15
  0
POLYLINE
  5
1EC
330
C4
100
AcDbEntity
  8
Wood
 62
   250
420
  2301728
370
    15
100
AcDb2dPolyline
 66
     1
 10
0.0
 20
0.0
 30
0.0
  0
VERTEX
  5
1ED
330
1EC
100
AcDbEntity
  8
Wood
 62
   250
420
  2301728
370
    15
100
AcDbVertex
100
AcDb2dVertex
 10
2.600854893751274
 20
3.405295410510866
 30
0.0
  0
VERTEX
  5
1EE
330
1EC
100
AcDbEntity
  8
Wood
 62
   250
420
  2301728
370
    15
100
AcDbVertex
100
AcDb2dVertex
 10
2.612781900871167
 20
3.397383458669221
 30
0.0
  0
VERTEX
  5
1EF
330
1EC
100
AcDbEntity
  8
Wood
 62
   250
420
  2301728
370
    15
100
AcDbVertex
100
AcDb2dVertex
 10
2.51614693792337
 20
3.382641069029154
 30
0.0
  0
VERTEX
  5
1F0
330
1EC
100
AcDbEntity
  8
Wood
 62
   250
420
  2301728
370
    15
100
AcDbVertex
100
AcDb2dVertex
 10
2.51450259481885
 20
3.400143308866455
 30
0.0
  0
VERTEX
  5
1F1
330
1EC
100
AcDbEntity
  8
Wood
 62
   250
420
  2301728
370
    15
100
AcDbVertex
100
AcDb2dVertex
 10
2.612123162723441
 20
3.416611762559505
 30
0.0
  0
SEQEND
  5
1F2
330
1EC
100
AcDbEntity
  8
Wood
 62
   250
420
  2301728
370
    15
  0
ENDBLK
  5
C7
330
C4
100
AcDbEntity
  8
0
100
AcDbBlockEnd
  0
BLOCK
  5
221
330
21F
100
AcDbEntity
  8
0
100
AcDbBlockBegin
  2
block 3
 70
     0
 10
0.0
 20
0.0
 30
0.0
  3
block 3
  1

  0
SPLINE
  5
223
330
21F
100
AcDbEntity
  8
TSP
 62
   250
420
  2301728
370
    18
100
AcDbSpline
210
0.0
220
0.0
230
1.0
 70
     8
 71
     3
 72
    17
 73
    13
 74
     0
 42
0.0000000001
 43
0.0000000001
 12
1.0
 22
0.0
 32
0.0
 13
1.0
 23
0.0
 33
0.0
 40
0.0
 40
0.0
 40
0.0
 40
0.0
 40
1.0
 40
1.0
 40
1.0
 40
2.0
 40
2.0
 40
2.0
 40
3.0
 40
3.0
 40
3.0
 40
4.0
 40
4.0
 40
4.0
 40
4.0
 10
2.073044559119555
 20
2.58420956337477
 30
0.0
 10
2.073044559119555
 20
2.58420956337477
 30
0.0
 10
2.070577897296314
 20
2.591487035033297
 30
0.0
 10
2.058254204795503
 20
2.59083060300553
 30
0.0
 10
2.058254204795503
 20
2.59083060300553
 30
0.0
 10
2.043461446317628
 20
2.590032423936034
 30
0.0
 10
2.040997188648235
 20
2.575148307612848
 30
0.0
 10
2.040997188648235
 20
2.575148307612848
 30
0.0
 10
2.040997188648235
 20
2.351542768768518
 30
0.0
 10
2.040997188648235
 20
2.351542768768518
 30
0.0
 10
2.040997188648235
 20
2.351542768768518
 30
0.0
 10
2.040174968040497
 20
2.339168589037399
 30
0.0
 10
2.044283666925392
 20
2.336117809417626
 30
0.0
  0
SPLINE
  5
224
330
21F
100
AcDbEntity
  8
TSP
 62
   250
420
  2301728
370
    13
100
AcDbSpline
210
0.0
220
0.0
230
1.0
 70
     8
 71
     3
 72
    11
 73
     7
 74
     0
 42
0.0000000001
 43
0.0000000001
 12
1.0
 22
0.0
 32
0.0
 13
1.0
 23
0.0
 33
0.0
 40
0.0
 40
0.0
 40
0.0
 40
0.0
 40
1.0
 40
1.0
 40
1.0
 40
2.0
 40
2.0
 40
2.0
 40
2.0
 10
2.076306995858456
 20
2.444280692682999
 30
0.0
 10
2.076306995858456
 20
2.444280692682999
 30
0.0
 10
2.076306995858456
 20
2.341916536858005
 30
0.0
 10
2.076306995858456
 20
2.341916536858005
 30
0.0
 10
2.076306995858456
 20
2.341916536858005
 30
0.0
 10
2.078773744785192
 20
2.333838580009999
 30
0.0
 10
2.083702260248502
 20
2.332453787407505
 30
0.0
  0
POLYLINE
  5
225
330
21F
100
AcDbEntity
  8
TSP
 62
   250
420
  2301728
370
    13
100
AcDb2dPolyline
 66
     1
 10
0.0
 20
0.0
 30
0.0
  0
VERTEX
  5
226
330
225
100
AcDbEntity
  8
TSP
 62
   250
420
  2301728
370
    13
100
AcDbVertex
100
AcDb2dVertex
 10
2.076306995858456
 20
2.561740341737492
 30
0.0
  0
VERTEX
  5
227
330
225
100
AcDbEntity
  8
TSP
 62
   250
420
  2301728
370
    13
100
AcDbVertex
100
AcDb2dVertex
 10
2.076306995858456
 20
2.468908750138932
 30
0.0
  0
SEQEND
  5
228
330
225
100
AcDbEntity
  8
TSP
 62
   250
420
  2301728
370
    13
  0
ENDBLK
  5
222
330
21F
100
AcDbEntity
  8
0
100
AcDbBlockEnd
  0
BLOCK
  5
22B
330
229
100
AcDbEntity
  8
0
100
AcDbBlockBegin
  2
block 4
 70
     0
 10
0.0
 20
0.0
 30
0.0
  3
block 4
  1

  0
SPLINE
  5
22D
330
229
100
AcDbEntity
  8
TSP
 62
   250
420
  2301728
370
    18
100
AcDbSpline
210
0.0
220
0.0
230
1.0
 70
     8
 71
     3
 72
    17
 73
    13
 74
     0
 42
0.0000000001
 43
0.0000000001
 12
1.0
 22
0.0
 32
0.0
 13
1.0
 23
0.0
 33
0.0
 40
0.0
 40
0.0
 40
0.0
 40
0.0
 40
1.0
 40
1.0
 40
1.0
 40
2.0
 40
2.0
 40
2.0
 40
3.0
 40
3.0
 40
3.0
 40
4.0
 40
4.0
 40
4.0
 40
4.0
 10
1.977770347236022
 20
2.453837109817515
 30
0.0
 10
1.977770347236022
 20
2.453837109817515
 30
0.0
 10
1.975306089566629
 20
2.461114483442189
 30
0.0
 10
1.96297999291197
 20
2.460434107910058
 30
0.0
 10
1.96297999291197
 20
2.460434107910058
 30
0.0
 10
1.94818723443412
 20
2.459657566224955
 30
0.0
 10
1.945722976764728
 20
2.444749408363552
 30
0.0
 10
1.945722976764728
 20
2.444749408363552
 30
0.0
 10
1.945722976764728
 20
2.374103440793331
 30
0.0
 10
1.945722976764728
 20
2.374103440793331
 30
0.0
 10
1.945722976764728
 20
2.374103440793331
 30
0.0
 10
1.944900756156964
 20
2.361755614212042
 30
0.0
 10
1.949009455041859
 20
2.358678297317561
 30
0.0
  0
SPLINE
  5
22E
330
229
100
AcDbEntity
  8
TSP
 62
   250
420
  2301728
370
    13
100
AcDbSpline
210
0.0
220
0.0
230
1.0
 70
     8
 71
     3
 72
    11
 73
     7
 74
     0
 42
0.0000000001
 43
0.0000000001
 12
1.0
 22
0.0
 32
0.0
 13
1.0
 23
0.0
 33
0.0
 40
0.0
 40
0.0
 40
0.0
 40
0.0
 40
1.0
 40
1.0
 40
1.0
 40
2.0
 40
2.0
 40
2.0
 40
2.0
 10
1.981056825513153
 20
2.383542056163353
 30
0.0
 10
1.981056825513153
 20
2.383542056163353
 30
0.0
 10
1.981056825513153
 20
2.364479520494367
 30
0.0
 10
1.981056825513153
 20
2.364479520494367
 30
0.0
 10
1.981056825513153
 20
2.364479520494367
 30
0.0
 10
1.983523487336394
 20
2.356377522108182
 30
0.0
 10
1.988452002675179
 20
2.355016771043918
 30
0.0
  0
POLYLINE
  5
22F
330
229
100
AcDbEntity
  8
TSP
 62
   250
420
  2301728
370
    13
100
AcDb2dPolyline
 66
     1
 10
0.0
 20
0.0
 30
0.0
  0
VERTEX
  5
230
330
22F
100
AcDbEntity
  8
TSP
 62
   250
420
  2301728
370
    13
100
AcDbVertex
100
AcDb2dVertex
 10
1.981056825513153
 20
2.431319805103764
 30
0.0
  0
VERTEX
  5
231
330
22F
100
AcDbEntity
  8
TSP
 62
   250
420
  2301728
370
    13
100
AcDbVertex
100
AcDb2dVertex
 10
1.981056825513153
 20
2.404227488966626
 30
0.0
  0
SEQEND
  5
232
330
22F
100
AcDbEntity
  8
TSP
 62
   250
420
  2301728
370
    13
  0
ENDBLK
  5
22C
330
229
100
AcDbEntity
  8
0
100
AcDbBlockEnd
  0
BLOCK
  5
235
330
233
100
AcDbEntity
  8
0
100
AcDbBlockBegin
  2
block 5
 70
     0
 10
0.0
 20
0.0
 30
0.0
  3
block 5
  1

  0
SPLINE
  5
237
330
233
100
AcDbEntity
  8
TSP
 62
   250
420
  2301728
370
    18
100
AcDbSpline
210
0.0
220
0.0
230
1.0
 70
     8
 71
     3
 72
    17
 73
    13
 74
     0
 42
0.0000000001
 43
0.0000000001
 12
1.0
 22
0.0
 32
0.0
 13
1.0
 23
0.0
 33
0.0
 40
0.0
 40
0.0
 40
0.0
 40
0.0
 40
1.0
 40
1.0
 40
1.0
 40
2.0
 40
2.0
 40
2.0
 40
3.0
 40
3.0
 40
3.0
 40
4.0
 40
4.0
 40
4.0
 40
4.0
 10
1.885924458705252
 20
2.616562360049013
 30
0.0
 10
1.885924458705252
 20
2.616562360049013
 30
0.0
 10
1.883529921496726
 20
2.623630572469551
 30
0.0
 10
1.871485110839482
 20
2.622995777014214
 30
0.0
 10
1.871485110839482
 20
2.622995777014214
 30
0.0
 10
1.857069804511942
 20
2.622243276867342
 30
0.0
 10
1.854675267303441
 20
2.607688529618031
 30
0.0
 10
1.854675267303441
 20
2.607688529618031
 30
0.0
 10
1.854675267303441
 20
2.394740604674603
 30
0.0
 10
1.854675267303441
 20
2.394740604674603
 30
0.0
 10
1.854675267303441
 20
2.394740604674603
 30
0.0
 10
1.854675267303441
 20
2.383472335702461
 30
0.0
 10
1.857069804511942
 20
2.38044310188444
 30
0.0
  0
SPLINE
  5
238
330
233
100
AcDbEntity
  8
TSP
 62
   250
420
  2301728
370
    13
100
AcDbSpline
210
0.0
220
0.0
230
1.0
 70
     8
 71
     3
 72
    11
 73
     7
 74
     0
 42
0.0000000001
 43
0.0000000001
 12
1.0
 22
0.0
 32
0.0
 13
1.0
 23
0.0
 33
0.0
 40
0.0
 40
0.0
 40
0.0
 40
0.0
 40
1.0
 40
1.0
 40
1.0
 40
2.0
 40
2.0
 40
2.0
 40
2.0
 10
1.889141216521491
 20
2.484756932145451
 30
0.0
 10
1.889141216521491
 20
2.484756932145451
 30
0.0
 10
1.889141216521491
 20
2.385349979838843
 30
0.0
 10
1.889141216521491
 20
2.385349979838843
 30
0.0
 10
1.889141216521491
 20
2.385349979838843
 30
0.0
 10
1.88904745452237
 20
2.37816646085821
 30
0.0
 10
1.894798190468893
 20
2.375161268502527
 30
0.0
  0
POLYLINE
  5
239
330
233
100
AcDbEntity
  8
TSP
 62
   250
420
  2301728
370
    13
100
AcDb2dPolyline
 66
     1
 10
0.0
 20
0.0
 30
0.0
  0
VERTEX
  5
23A
330
239
100
AcDbEntity
  8
TSP
 62
   250
420
  2301728
370
    13
100
AcDbVertex
100
AcDb2dVertex
 10
1.889141216521491
 20
2.597968535708408
 30
0.0
  0
VERTEX
  5
23B
330
239
100
AcDbEntity
  8
TSP
 62
   250
420
  2301728
370
    13
100
AcDbVertex
100
AcDb2dVertex
 10
1.889141216521491
 20
2.508798470383517
 30
0.0
  0
SEQEND
  5
23C
330
239
100
AcDbEntity
  8
TSP
 62
   250
420
  2301728
370
    13
  0
ENDBLK
  5
236
330
233
100
AcDbEntity
  8
0
100
AcDbBlockEnd
  0
BLOCK
  5
23F
330
23D
100
AcDbEntity
  8
0
100
AcDbBlockBegin
  2
block 6
 70
     0
 10
0.0
 20
0.0
 30
0.0
  3
block 6
  1

  0
SPLINE
  5
241
330
23D
100
AcDbEntity
  8
TSP
 62
   250
420
  2301728
370
    18
100
AcDbSpline
210
0.0
220
0.0
230
1.0
 70
    11
 71
     3
 72
    17
 73
    13
 74
     0
 42
0.0000000001
 43
0.0000000001
 12
1.0
 22
0.0
 32
0.0
 13
1.0
 23
0.0
 33
0.0
 40
0.0
 40
0.0
 40
0.0
 40
0.0
 40
1.0
 40
1.0
 40
1.0
 40
2.0
 40
2.0
 40
2.0
 40
3.0
 40
3.0
 40
3.0
 40
4.0
 40
4.0
 40
4.0
 40
4.0
 10
1.936565554849848
 20
2.500463269076375
 30
0.0
 10
1.940861777732986
 20
2.486141724747982
 30
0.0
 10
1.934993238249086
 20
2.471257608424821
 30
0.0
 10
1.923419641741298
 20
2.467242671539073
 30
0.0
 10
1.911867682617918
 20
2.463203693115095
 30
0.0
 10
1.89900065135291
 20
2.471514852883956
 30
0.0
 10
1.894680386931542
 20
2.48581235567412
 30
0.0
 10
1.890362526663971
 20
2.500112262618131
 30
0.0
 10
1.896255107686127
 20
2.515044462017752
 30
0.0
 10
1.907804662655685
 20
2.519081036287932
 30
0.0
 10
1.919404704855525
 20
2.523120014711922
 30
0.0
 10
1.93224529042848
 20
2.514784813404794
 30
0.0
 10
1.936565554849848
 20
2.500463269076375
 30
0.0
  0
SPLINE
  5
242
330
23D
100
AcDbEntity
  8
TSP
 62
   250
420
  2301728
370
    18
100
AcDbSpline
210
0.0
220
0.0
230
1.0
 70
    11
 71
     3
 72
    29
 73
    25
 74
     0
 42
0.0000000001
 43
0.0000000001
 12
1.0
 22
0.0
 32
0.0
 13
1.0
 23
0.0
 33
0.0
 40
0.0
 40
0.0
 40
0.0
 40
0.0
 40
1.0
 40
1.0
 40
1.0
 40
2.0
 40
2.0
 40
2.0
 40
3.0
 40
3.0
 40
3.0
 40
4.0
 40
4.0
 40
4.0
 40
5.0
 40
5.0
 40
5.0
 40
6.0
 40
6.0
 40
6.0
 40
7.0
 40
7.0
 40
7.0
 40
8.0
 40
8.0
 40
8.0
 40
8.0
 10
1.907804662655685
 20
2.519081036287932
 30
0.0
 10
1.908650924801653
 20
2.519362418497154
 30
0.0
 10
1.9094972697749
 20
2.519456084284444
 30
0.0
 10
1.910341044939792
 20
2.51959792936005
 30
0.0
 10
1.911326748007544
 20
2.520184542893035
 30
0.0
 10
1.912384575690036
 20
2.520771156426046
 30
0.0
 10
1.913509719679572
 20
2.521170245960825
 30
0.0
 10
1.925037637264697
 20
2.525233265923046
 30
0.0
 10
1.937950347452367
 20
2.516922106154134
 30
0.0
 10
1.942270611873735
 20
2.502576520287511
 30
0.0
 10
1.947694382900232
 20
2.484451604609856
 30
0.0
 10
1.944782952619612
 20
2.474777289622883
 30
0.0
 10
1.92910065722693
 20
2.469331976159891
 30
0.0
 10
1.928278436619191
 20
2.469026553676334
 30
0.0
 10
1.927432257753531
 20
2.468932791677212
 30
0.0
 10
1.926588316481052
 20
2.46879094660158
 30
0.0
 10
1.9256026134133
 20
2.46820433306857
 30
0.0
 10
1.924568827269064
 20
2.46759367799733
 30
0.0
 10
1.923419641741298
 20
2.467242671539073
 30
0.0
 10
1.911867682617918
 20
2.463203693115095
 30
0.0
 10
1.89900065135291
 20
2.471514852883956
 30
0.0
 10
1.894680386931542
 20
2.48581235567412
 30
0.0
 10
1.890362526663971
 20
2.500112262618131
 30
0.0
 10
1.896255107686127
 20
2.515044462017752
 30
0.0
 10
1.907804662655685
 20
2.519081036287932
 30
0.0
  0
ENDBLK
  5
240
330
23D
100
AcDbEntity
  8
0
100
AcDbBlockEnd
  0
BLOCK
  5
245
330
243
100
AcDbEntity
  8
0
100
AcDbBlockBegin
  2
block 7
 70
     0
 10
0.0
 20
0.0
 30
0.0
  3
block 7
  1

  0
SPLINE
  5
247
330
243
100
AcDbEntity
  8
TSP
 62
   250
420
  2301728
370
    18
100
AcDbSpline
210
0.0
220
0.0
230
1.0
 70
    11
 71
     3
 72
    17
 73
    13
 74
     0
 42
0.0000000001
 43
0.0000000001
 12
1.0
 22
0.0
 32
0.0
 13
1.0
 23
0.0
 33
0.0
 40
0.0
 40
0.0
 40
0.0
 40
0.0
 40
1.0
 40
1.0
 40
1.0
 40
2.0
 40
2.0
 40
2.0
 40
3.0
 40
3.0
 40
3.0
 40
4.0
 40
4.0
 40
4.0
 40
4.0
 10
1.936565554849848
 20
2.602594225979841
 30
0.0
 10
1.940861777732986
 20
2.588294220721397
 30
0.0
 10
1.934993238249086
 20
2.573434145936492
 30
0.0
 10
1.923419641741298
 20
2.569371125974246
 30
0.0
 10
1.911867682617918
 20
2.565356189088498
 30
0.0
 10
1.89900065135291
 20
2.573667348857384
 30
0.0
 10
1.894680386931542
 20
2.587988893185778
 30
0.0
 10
1.890362526663971
 20
2.602288800129763
 30
0.0
 10
1.896255107686127
 20
2.61719695799118
 30
0.0
 10
1.907804662655685
 20
2.621233532261347
 30
0.0
 10
1.919404704855525
 20
2.625248469147095
 30
0.0
 10
1.93224529042848
 20
2.616937309378209
 30
0.0
 10
1.936565554849848
 20
2.602594225979841
 30
0.0
  0
SPLINE
  5
248
330
243
100
AcDbEntity
  8
TSP
 62
   250
420
  2301728
370
    18
100
AcDbSpline
210
0.0
220
0.0
230
1.0
 70
    11
 71
     3
 72
    29
 73
    25
 74
     0
 42
0.0000000001
 43
0.0000000001
 12
1.0
 22
0.0
 32
0.0
 13
1.0
 23
0.0
 33
0.0
 40
0.0
 40
0.0
 40
0.0
 40
0.0
 40
1.0
 40
1.0
 40
1.0
 40
2.0
 40
2.0
 40
2.0
 40
3.0
 40
3.0
 40
3.0
 40
4.0
 40
4.0
 40
4.0
 40
5.0
 40
5.0
 40
5.0
 40
6.0
 40
6.0
 40
6.0
 40
7.0
 40
7.0
 40
7.0
 40
8.0
 40
8.0
 40
8.0
 40
8.0
 10
1.907804662655685
 20
2.621233532261347
 30
0.0
 10
1.908650924801653
 20
2.621517222412561
 30
0.0
 10
1.9094972697749
 20
2.621587041667668
 30
0.0
 10
1.910341044939792
 20
2.621774466871708
 30
0.0
 10
1.911326748007544
 20
2.622361080404706
 30
0.0
 10
1.912384575690036
 20
2.622926056553309
 30
0.0
 10
1.913509719679572
 20
2.623325146088051
 30
0.0
 10
1.925037637264697
 20
2.627361720358218
 30
0.0
 10
1.937950347452367
 20
2.619050560589332
 30
0.0
 10
1.942270611873735
 20
2.604729016260926
 30
0.0
 10
1.947694382900232
 20
2.586604100583284
 30
0.0
 10
1.944782952619612
 20
2.576932189750108
 30
0.0
 10
1.92910065722693
 20
2.571484474713934
 30
0.0
 10
1.928278436619191
 20
2.571203091187992
 30
0.0
 10
1.927432257753531
 20
2.571085287650615
 30
0.0
 10
1.926588316481052
 20
2.570943442575008
 30
0.0
 10
1.9256026134133
 20
2.570356829041998
 30
0.0
 10
1.924568827269064
 20
2.569770215509013
 30
0.0
 10
1.923419641741298
 20
2.569371125974246
 30
0.0
 10
1.911867682617918
 20
2.565356189088498
 30
0.0
 10
1.89900065135291
 20
2.573667348857384
 30
0.0
 10
1.894680386931542
 20
2.587988893185778
 30
0.0
 10
1.890362526663971
 20
2.602288800129763
 30
0.0
 10
1.896255107686127
 20
2.61719695799118
 30
0.0
 10
1.907804662655685
 20
2.621233532261347
 30
0.0
  0
ENDBLK
  5
246
330
243
100
AcDbEntity
  8
0
100
AcDbBlockEnd
  0
BLOCK
  5
24B
330
249
100
AcDbEntity
  8
0
100
AcDbBlockBegin
  2
block 8
 70
     0
 10
0.0
 20
0.0
 30
0.0
  3
block 8
  1

  0
SPLINE
  5
24D
330
249
100
AcDbEntity
  8
TSP
 62
   250
420
  2301728
370
    18
100
AcDbSpline
210
0.0
220
0.0
230
1.0
 70
    11
 71
     3
 72
    17
 73
    13
 74
     0
 42
0.0000000001
 43
0.0000000001
 12
1.0
 22
0.0
 32
0.0
 13
1.0
 23
0.0
 33
0.0
 40
0.0
 40
0.0
 40
0.0
 40
0.0
 40
1.0
 40
1.0
 40
1.0
 40
2.0
 40
2.0
 40
2.0
 40
3.0
 40
3.0
 40
3.0
 40
4.0
 40
4.0
 40
4.0
 40
4.0
 10
1.892497415259514
 20
2.746819417513267
 30
0.0
 10
1.896793638142652
 20
2.732521812765235
 30
0.0
 10
1.890925098658752
 20
2.717659333826469
 30
0.0
 10
1.879349180062768
 20
2.713596313864248
 30
0.0
 10
1.867799543027584
 20
2.709581376978488
 30
0.0
 10
1.854932511762563
 20
2.71789494090121
 30
0.0
 10
1.850612247341208
 20
2.732216485229603
 30
0.0
 10
1.846292064150374
 20
2.746513988019766
 30
0.0
 10
1.852186968095793
 20
2.761422145881182
 30
0.0
 10
1.863736523065351
 20
2.765461124305173
 30
0.0
 10
1.875336565265217
 20
2.769476061190921
 30
0.0
 10
1.888177150838146
 20
2.761164901422047
 30
0.0
 10
1.892497415259514
 20
2.746819417513267
 30
0.0
  0
SPLINE
  5
24E
330
249
100
AcDbEntity
  8
TSP
 62
   250
420
  2301728
370
    18
100
AcDbSpline
210
0.0
220
0.0
230
1.0
 70
    11
 71
     3
 72
    29
 73
    25
 74
     0
 42
0.0000000001
 43
0.0000000001
 12
1.0
 22
0.0
 32
0.0
 13
1.0
 23
0.0
 33
0.0
 40
0.0
 40
0.0
 40
0.0
 40
0.0
 40
1.0
 40
1.0
 40
1.0
 40
2.0
 40
2.0
 40
2.0
 40
3.0
 40
3.0
 40
3.0
 40
4.0
 40
4.0
 40
4.0
 40
5.0
 40
5.0
 40
5.0
 40
6.0
 40
6.0
 40
6.0
 40
7.0
 40
7.0
 40
7.0
 40
8.0
 40
8.0
 40
8.0
 40
8.0
 10
1.863736523065351
 20
2.765461124305173
 30
0.0
 10
1.864582785211345
 20
2.765742410302551
 30
0.0
 10
1.86542664320349
 20
2.765812233201093
 30
0.0
 10
1.866272905349458
 20
2.765999654761698
 30
0.0
 10
1.867258608417236
 20
2.766586268294708
 30
0.0
 10
1.868316436099702
 20
2.767151244443312
 30
0.0
 10
1.869441580089238
 20
2.767550333978054
 30
0.0
 10
1.880969497674389
 20
2.771589312402044
 30
0.0
 10
1.893882207862033
 20
2.763275748479335
 30
0.0
 10
1.898202472283401
 20
2.748954204150929
 30
0.0
 10
1.903626243309898
 20
2.730829288473274
 30
0.0
 10
1.900714813029279
 20
2.721157377640111
 30
0.0
 10
1.885032517636622
 20
2.715709666247347
 30
0.0
 10
1.884210297028858
 20
2.715428279077981
 30
0.0
 10
1.883364117049976
 20
2.715310475540617
 30
0.0
 10
1.882520176890744
 20
2.715171034618834
 30
0.0
 10
1.881534473822967
 20
2.714584421085823
 30
0.0
 10
1.88050068767873
 20
2.713995403399003
 30
0.0
 10
1.879349180062768
 20
2.713596313864248
 30
0.0
 10
1.867799543027584
 20
2.709581376978488
 30
0.0
 10
1.854932511762563
 20
2.71789494090121
 30
0.0
 10
1.850612247341208
 20
2.732216485229603
 30
0.0
 10
1.846292064150374
 20
2.746513988019766
 30
0.0
 10
1.852186968095793
 20
2.761422145881182
 30
0.0
 10
1.863736523065351
 20
2.765461124305173
 30
0.0
  0
ENDBLK
  5
24C
330
249
100
AcDbEntity
  8
0
100
AcDbBlockEnd
  0
BLOCK
  5
251
330
24F
100
AcDbEntity
  8
0
100
AcDbBlockBegin
  2
block 9
 70
     0
 10
0.0
 20
0.0
 30
0.0
  3
block 9
  1

  0
SPLINE
  5
253
330
24F
100
AcDbEntity
  8
TSP
 62
   250
420
  2301728
370
    18
100
AcDbSpline
210
0.0
220
0.0
230
1.0
 70
    11
 71
     3
 72
    17
 73
    13
 74
     0
 42
0.0000000001
 43
0.0000000001
 12
1.0
 22
0.0
 32
0.0
 13
1.0
 23
0.0
 33
0.0
 40
0.0
 40
0.0
 40
0.0
 40
0.0
 40
1.0
 40
1.0
 40
1.0
 40
2.0
 40
2.0
 40
2.0
 40
3.0
 40
3.0
 40
3.0
 40
4.0
 40
4.0
 40
4.0
 40
4.0
 10
1.936565554849848
 20
2.879047881162857
 30
0.0
 10
1.940861777732986
 20
2.864750273074441
 30
0.0
 10
1.934993238249086
 20
2.849887794135674
 30
0.0
 10
1.923419641741298
 20
2.845824774173454
 30
0.0
 10
1.911867682617918
 20
2.841809837287706
 30
0.0
 10
1.89900065135291
 20
2.850123401210415
 30
0.0
 10
1.894680386931542
 20
2.864444945538821
 30
0.0
 10
1.890362526663971
 20
2.878742448328985
 30
0.0
 10
1.896255107686127
 20
2.893650606190388
 30
0.0
 10
1.907804662655685
 20
2.897689584614378
 30
0.0
 10
1.919404704855525
 20
2.901704521500139
 30
0.0
 10
1.93224529042848
 20
2.89339336173124
 30
0.0
 10
1.936565554849848
 20
2.879047881162857
 30
0.0
  0
SPLINE
  5
254
330
24F
100
AcDbEntity
  8
TSP
 62
   250
420
  2301728
370
    18
100
AcDbSpline
210
0.0
220
0.0
230
1.0
 70
    11
 71
     3
 72
    29
 73
    25
 74
     0
 42
0.0000000001
 43
0.0000000001
 12
1.0
 22
0.0
 32
0.0
 13
1.0
 23
0.0
 33
0.0
 40
0.0
 40
0.0
 40
0.0
 40
0.0
 40
1.0
 40
1.0
 40
1.0
 40
2.0
 40
2.0
 40
2.0
 40
3.0
 40
3.0
 40
3.0
 40
4.0
 40
4.0
 40
4.0
 40
5.0
 40
5.0
 40
5.0
 40
6.0
 40
6.0
 40
6.0
 40
7.0
 40
7.0
 40
7.0
 40
8.0
 40
8.0
 40
8.0
 40
8.0
 10
1.907804662655685
 20
2.897689584614378
 30
0.0
 10
1.908650924801653
 20
2.897970870611769
 30
0.0
 10
1.9094972697749
 20
2.898040696850684
 30
0.0
 10
1.910341044939792
 20
2.898228115070916
 30
0.0
 10
1.911326748007544
 20
2.898814728603927
 30
0.0
 10
1.912384575690036
 20
2.899379704752517
 30
0.0
 10
1.913509719679572
 20
2.899778794287272
 30
0.0
 10
1.925037637264697
 20
2.903817772711262
 30
0.0
 10
1.937950347452367
 20
2.895504208788541
 30
0.0
 10
1.942270611873735
 20
2.881182664460147
 30
0.0
 10
1.947694382900232
 20
2.863057748782492
 30
0.0
 10
1.944782952619612
 20
2.853385837949329
 30
0.0
 10
1.92910065722693
 20
2.84793812989695
 30
0.0
 10
1.928278436619191
 20
2.8476567393872
 30
0.0
 10
1.927432257753531
 20
2.847538935849836
 30
0.0
 10
1.926588316481052
 20
2.847399494928052
 30
0.0
 10
1.9256026134133
 20
2.846812881395042
 30
0.0
 10
1.924568827269064
 20
2.846223863708208
 30
0.0
 10
1.923419641741298
 20
2.845824774173454
 30
0.0
 10
1.911867682617918
 20
2.841809837287706
 30
0.0
 10
1.89900065135291
 20
2.850123401210415
 30
0.0
 10
1.894680386931542
 20
2.864444945538821
 30
0.0
 10
1.890362526663971
 20
2.878742448328985
 30
0.0
 10
1.896255107686127
 20
2.893650606190388
 30
0.0
 10
1.907804662655685
 20
2.897689584614378
 30
0.0
  0
ENDBLK
  5
252
330
24F
100
AcDbEntity
  8
0
100
AcDbBlockEnd
  0
BLOCK
  5
257
330
255
100
AcDbEntity
  8
0
100
AcDbBlockBegin
  2
block 10
 70
     0
 10
0.0
 20
0.0
 30
0.0
  3
block 10
  1

  0
SPLINE
  5
259
330
255
100
AcDbEntity
  8
TSP
 62
   250
420
  2301728
370
    18
100
AcDbSpline
210
0.0
220
0.0
230
1.0
 70
    11
 71
     3
 72
    17
 73
    13
 74
     0
 42
0.0000000001
 43
0.0000000001
 12
1.0
 22
0.0
 32
0.0
 13
1.0
 23
0.0
 33
0.0
 40
0.0
 40
0.0
 40
0.0
 40
0.0
 40
1.0
 40
1.0
 40
1.0
 40
2.0
 40
2.0
 40
2.0
 40
3.0
 40
3.0
 40
3.0
 40
4.0
 40
4.0
 40
4.0
 40
4.0
 10
2.036746644687759
 20
2.782881725781332
 30
0.0
 10
2.041042867570897
 20
2.76858412012229
 30
0.0
 10
2.035174328086997
 20
2.753721641183536
 30
0.0
 10
2.023598413135056
 20
2.749658621221303
 30
0.0
 10
2.012048772455829
 20
2.745643684335555
 30
0.0
 10
1.999181741190821
 20
2.753957248258264
 30
0.0
 10
1.994861476769453
 20
2.768278792586671
 30
0.0
 10
1.990541297222661
 20
2.782576295376821
 30
0.0
 10
1.996436197524038
 20
2.797484453238237
 30
0.0
 10
2.007985752493596
 20
2.801523431662228
 30
0.0
 10
2.019585794693436
 20
2.805538368547976
 30
0.0
 10
2.032426380266391
 20
2.797227208779077
 30
0.0
 10
2.036746644687759
 20
2.782881725781332
 30
0.0
  0
SPLINE
  5
25A
330
255
100
AcDbEntity
  8
TSP
 62
   250
420
  2301728
370
    18
100
AcDbSpline
210
0.0
220
0.0
230
1.0
 70
    11
 71
     3
 72
    29
 73
    25
 74
     0
 42
0.0000000001
 43
0.0000000001
 12
1.0
 22
0.0
 32
0.0
 13
1.0
 23
0.0
 33
0.0
 40
0.0
 40
0.0
 40
0.0
 40
0.0
 40
1.0
 40
1.0
 40
1.0
 40
2.0
 40
2.0
 40
2.0
 40
3.0
 40
3.0
 40
3.0
 40
4.0
 40
4.0
 40
4.0
 40
5.0
 40
5.0
 40
5.0
 40
6.0
 40
6.0
 40
6.0
 40
7.0
 40
7.0
 40
7.0
 40
8.0
 40
8.0
 40
8.0
 40
8.0
 10
2.007985752493596
 20
2.801523431662228
 30
0.0
 10
2.008832014639564
 20
2.801804717659605
 30
0.0
 10
2.009675872631735
 20
2.801874541469159
 30
0.0
 10
2.010522134777703
 20
2.802061962118753
 30
0.0
 10
2.011507837845455
 20
2.802648575651763
 30
0.0
 10
2.012565665527947
 20
2.803213551800367
 30
0.0
 10
2.013690809517483
 20
2.803612641335108
 30
0.0
 10
2.025218727102609
 20
2.807651619759099
 30
0.0
 10
2.038131437290278
 20
2.79933805583639
 30
0.0
 10
2.042451701711646
 20
2.785016511507984
 30
0.0
 10
2.047875472738143
 20
2.766891595830328
 30
0.0
 10
2.044964042457524
 20
2.757219684997166
 30
0.0
 10
2.029281747064841
 20
2.751771974515413
 30
0.0
 10
2.028459526457103
 20
2.751490586435037
 30
0.0
 10
2.027613350122263
 20
2.751372782897672
 30
0.0
 10
2.026769406318964
 20
2.751233341975889
 30
0.0
 10
2.025783703251212
 20
2.750646728442891
 30
0.0
 10
2.024749917106975
 20
2.750057710756058
 30
0.0
 10
2.023598413135056
 20
2.749658621221303
 30
0.0
 10
2.012048772455829
 20
2.745643684335555
 30
0.0
 10
1.999181741190821
 20
2.753957248258264
 30
0.0
 10
1.994861476769453
 20
2.768278792586671
 30
0.0
 10
1.990541297222661
 20
2.782576295376821
 30
0.0
 10
1.996436197524038
 20
2.797484453238237
 30
0.0
 10
2.007985752493596
 20
2.801523431662228
 30
0.0
  0
ENDBLK
  5
258
330
255
100
AcDbEntity
  8
0
100
AcDbBlockEnd
  0
BLOCK
  5
25D
330
25B
100
AcDbEntity
  8
0
100
AcDbBlockBegin
  2
block 11
 70
     0
 10
0.0
 20
0.0
 30
0.0
  3
block 11
  1

  0
SPLINE
  5
25F
330
25B
100
AcDbEntity
  8
TSP
 62
   250
420
  2301728
370
    18
100
AcDbSpline
210
0.0
220
0.0
230
1.0
 70
    11
 71
     3
 72
    17
 73
    13
 74
     0
 42
0.0000000001
 43
0.0000000001
 12
1.0
 22
0.0
 32
0.0
 13
1.0
 23
0.0
 33
0.0
 40
0.0
 40
0.0
 40
0.0
 40
0.0
 40
1.0
 40
1.0
 40
1.0
 40
2.0
 40
2.0
 40
2.0
 40
3.0
 40
3.0
 40
3.0
 40
4.0
 40
4.0
 40
4.0
 40
4.0
 10
2.032121052730746
 20
2.539530768713184
 30
0.0
 10
2.036419679767707
 20
2.525209224384791
 30
0.0
 10
2.030548736129984
 20
2.510346841430128
 30
0.0
 10
2.018975139622196
 20
2.506286129637639
 30
0.0
 10
2.007399138960586
 20
2.502247151213636
 30
0.0
 10
1.994534511849401
 20
2.510582352520777
 30
0.0
 10
1.990214247428033
 20
2.524903896849171
 30
0.0
 10
1.985893983006665
 20
2.539201399639334
 30
0.0
 10
1.991786564028795
 20
2.554087920116331
 30
0.0
 10
2.003362564690406
 20
2.558148535924741
 30
0.0
 10
2.014912119659963
 20
2.562187514348718
 30
0.0
 10
2.027779150924971
 20
2.553828271503347
 30
0.0
 10
2.032121052730746
 20
2.539530768713184
 30
0.0
  0
SPLINE
  5
260
330
25B
100
AcDbEntity
  8
TSP
 62
   250
420
  2301728
370
    18
100
AcDbSpline
210
0.0
220
0.0
230
1.0
 70
    11
 71
     3
 72
    29
 73
    25
 74
     0
 42
0.0000000001
 43
0.0000000001
 12
1.0
 22
0.0
 32
0.0
 13
1.0
 23
0.0
 33
0.0
 40
0.0
 40
0.0
 40
0.0
 40
0.0
 40
1.0
 40
1.0
 40
1.0
 40
2.0
 40
2.0
 40
2.0
 40
3.0
 40
3.0
 40
3.0
 40
4.0
 40
4.0
 40
4.0
 40
5.0
 40
5.0
 40
5.0
 40
6.0
 40
6.0
 40
6.0
 40
7.0
 40
7.0
 40
7.0
 40
8.0
 40
8.0
 40
8.0
 40
8.0
 10
2.003362564690406
 20
2.558148535924741
 30
0.0
 10
2.004182381144321
 20
2.558408184537698
 30
0.0
 10
2.005004601752085
 20
2.558502043737399
 30
0.0
 10
2.005850863898053
 20
2.558665428996859
 30
0.0
 10
2.006882245888467
 20
2.559252042529869
 30
0.0
 10
2.007916032032704
 20
2.55983865606288
 30
0.0
 10
2.009043580176063
 20
2.560237745597621
 30
0.0
 10
2.020593220779372
 20
2.564300765559867
 30
0.0
 10
2.033484207948858
 20
2.555941522714483
 30
0.0
 10
2.037780430831996
 20
2.541619978386077
 30
0.0
 10
2.042100695253364
 20
2.527298434057671
 30
0.0
 10
2.036184072692979
 20
2.512438455309658
 30
0.0
 10
2.024656240844251
 20
2.50839947678364
 30
0.0
 10
2.023833934500115
 20
2.508118094851385
 30
0.0
 10
2.022966034969714
 20
2.508000291314008
 30
0.0
 10
2.022119772823721
 20
2.507834404700171
 30
0.0
 10
2.021110028217739
 20
2.507271832705391
 30
0.0
 10
2.020100283611732
 20
2.506685219172381
 30
0.0
 10
2.018975139622196
 20
2.506286129637639
 30
0.0
 10
2.007399138960586
 20
2.502247151213636
 30
0.0
 10
1.994534511849401
 20
2.510582352520777
 30
0.0
 10
1.990214247428033
 20
2.524903896849171
 30
0.0
 10
1.985893983006665
 20
2.539201399639334
 30
0.0
 10
1.991786564028795
 20
2.554087920116331
 30
0.0
 10
2.003362564690406
 20
2.558148535924741
 30
0.0
  0
ENDBLK
  5
25E
330
25B
100
AcDbEntity
  8
0
100
AcDbBlockEnd
  0
BLOCK
  5
263
330
261
100
AcDbEntity
  8
0
100
AcDbBlockBegin
  2
block 12
 70
     0
 10
0.0
 20
0.0
 30
0.0
  3
block 12
  1

  0
SPLINE
  5
265
330
261
100
AcDbEntity
  8
TSP
 62
   250
420
  2301728
370
    18
100
AcDbSpline
210
0.0
220
0.0
230
1.0
 70
    11
 71
     3
 72
    17
 73
    13
 74
     0
 42
0.0000000001
 43
0.0000000001
 12
1.0
 22
0.0
 32
0.0
 13
1.0
 23
0.0
 33
0.0
 40
0.0
 40
0.0
 40
0.0
 40
0.0
 40
1.0
 40
1.0
 40
1.0
 40
2.0
 40
2.0
 40
2.0
 40
3.0
 40
3.0
 40
3.0
 40
4.0
 40
4.0
 40
4.0
 40
4.0
 10
1.960772979701738
 20
3.767832190525193
 30
0.0
 10
1.956452715280344
 20
3.753065877739409
 30
0.0
 10
1.96232125476427
 20
3.738790012333639
 30
0.0
 10
1.973918892810287
 20
3.735996385590384
 30
0.0
 10
1.985446810395438
 20
3.733178717308887
 30
0.0
 10
1.998359520583083
 20
3.742874669680292
 30
0.0
 10
2.002658232800741
 20
3.757643386619911
 30
0.0
 10
2.007000049425819
 20
3.772433740943963
 30
0.0
 10
2.001083426865458
 20
3.786685564811478
 30
0.0
 10
1.989509830357646
 20
3.789503233092963
 30
0.0
 10
1.977933829696035
 20
3.792308880605345
 30
0.0
 10
1.965093244123106
 20
3.782625077127578
 30
0.0
 10
1.960772979701738
 20
3.767832190525193
 30
0.0
  0
SPLINE
  5
266
330
261
100
AcDbEntity
  8
TSP
 62
   250
420
  2301728
370
    18
100
AcDbSpline
210
0.0
220
0.0
230
1.0
 70
    11
 71
     3
 72
    29
 73
    25
 74
     0
 42
0.0000000001
 43
0.0000000001
 12
1.0
 22
0.0
 32
0.0
 13
1.0
 23
0.0
 33
0.0
 40
0.0
 40
0.0
 40
0.0
 40
0.0
 40
1.0
 40
1.0
 40
1.0
 40
2.0
 40
2.0
 40
2.0
 40
3.0
 40
3.0
 40
3.0
 40
4.0
 40
4.0
 40
4.0
 40
5.0
 40
5.0
 40
5.0
 40
6.0
 40
6.0
 40
6.0
 40
7.0
 40
7.0
 40
7.0
 40
8.0
 40
8.0
 40
8.0
 40
8.0
 10
1.989509830357646
 20
3.789503233092963
 30
0.0
 10
1.988711651288162
 20
3.789702777860334
 30
0.0
 10
1.987841347603939
 20
3.789702777860334
 30
0.0
 10
1.986997489611768
 20
3.789772498321225
 30
0.0
 10
1.986011786544016
 20
3.790253329085961
 30
0.0
 10
1.984978000399779
 20
3.790724543235456
 30
0.0
 10
1.983850452256421
 20
3.790993808463718
 30
0.0
 10
1.972276855748633
 20
3.793823497514343
 30
0.0
 10
1.959409824483626
 20
3.784115652535989
 30
0.0
 10
1.955067922677851
 20
3.769346807434191
 30
0.0
 10
1.950771699794712
 20
3.754568601295015
 30
0.0
 10
1.956664280816843
 20
3.740304629242637
 30
0.0
 10
1.96823787732463
 20
3.737499108714789
 30
0.0
 10
1.969060097932369
 20
3.737299436962884
 30
0.0
 10
1.969903955924539
 20
3.737299436962884
 30
0.0
 10
1.970750218070508
 20
3.737229716501992
 30
0.0
 10
1.971759962676515
 20
3.736748885737231
 30
0.0
 10
1.972793748820752
 20
3.736277671587775
 30
0.0
 10
1.973918892810287
 20
3.735996385590384
 30
0.0
 10
1.985446810395438
 20
3.733178717308887
 30
0.0
 10
1.998359520583083
 20
3.742874669680292
 30
0.0
 10
2.002658232800741
 20
3.757643386619911
 30
0.0
 10
2.007000049425819
 20
3.772433740943963
 30
0.0
 10
2.001083426865458
 20
3.786685564811478
 30
0.0
 10
1.989509830357646
 20
3.789503233092963
 30
0.0
  0
ENDBLK
  5
264
330
261
100
AcDbEntity
  8
0
100
AcDbBlockEnd
  0
BLOCK
  5
269
330
267
100
AcDbEntity
  8
0
100
AcDbBlockBegin
  2
block 13
 70
     0
 10
0.0
 20
0.0
 30
0.0
  3
block 13
  1

  0
SPLINE
  5
26B
330
267
100
AcDbEntity
  8
TSP
 62
   250
420
  2301728
370
    18
100
AcDbSpline
210
0.0
220
0.0
230
1.0
 70
    11
 71
     3
 72
    17
 73
    13
 74
     0
 42
0.0000000001
 43
0.0000000001
 12
1.0
 22
0.0
 32
0.0
 13
1.0
 23
0.0
 33
0.0
 40
0.0
 40
0.0
 40
0.0
 40
0.0
 40
1.0
 40
1.0
 40
1.0
 40
2.0
 40
2.0
 40
2.0
 40
3.0
 40
3.0
 40
3.0
 40
4.0
 40
4.0
 40
4.0
 40
4.0
 10
2.010851503851553
 20
3.87601911259637
 30
0.0
 10
2.006531239430185
 20
3.861252799810561
 30
0.0
 10
2.012399778914086
 20
3.846976934404817
 30
0.0
 10
2.023997416960128
 20
3.844183307661536
 30
0.0
 10
2.035525334545254
 20
3.841365639380064
 30
0.0
 10
2.048440448886746
 20
3.851061591751456
 30
0.0
 10
2.052736758215638
 20
3.865830308691077
 30
0.0
 10
2.05707857357566
 20
3.880620663015129
 30
0.0
 10
2.051161951015274
 20
3.894872486882643
 30
0.0
 10
2.039588354507487
 20
3.89769015516414
 30
0.0
 10
2.028012353845876
 20
3.900495802676523
 30
0.0
 10
2.015171768272947
 20
3.890812001931787
 30
0.0
 10
2.010851503851553
 20
3.87601911259637
 30
0.0
  0
SPLINE
  5
26C
330
267
100
AcDbEntity
  8
TSP
 62
   250
420
  2301728
370
    18
100
AcDbSpline
210
0.0
220
0.0
230
1.0
 70
    11
 71
     3
 72
    29
 73
    25
 74
     0
 42
0.0000000001
 43
0.0000000001
 12
1.0
 22
0.0
 32
0.0
 13
1.0
 23
0.0
 33
0.0
 40
0.0
 40
0.0
 40
0.0
 40
0.0
 40
1.0
 40
1.0
 40
1.0
 40
2.0
 40
2.0
 40
2.0
 40
3.0
 40
3.0
 40
3.0
 40
4.0
 40
4.0
 40
4.0
 40
5.0
 40
5.0
 40
5.0
 40
6.0
 40
6.0
 40
6.0
 40
7.0
 40
7.0
 40
7.0
 40
8.0
 40
8.0
 40
8.0
 40
8.0
 10
2.039588354507487
 20
3.89769015516414
 30
0.0
 10
2.038790175437978
 20
3.897889699931511
 30
0.0
 10
2.037922275907603
 20
3.897889699931511
 30
0.0
 10
2.037076013761609
 20
3.897959420392403
 30
0.0
 10
2.036090310693857
 20
3.898440251157164
 30
0.0
 10
2.03505652454962
 20
3.898911465306633
 30
0.0
 10
2.033928976406262
 20
3.899180730534908
 30
0.0
 10
2.022355379898474
 20
3.902010419585533
 30
0.0
 10
2.009488348633466
 20
3.892302577340198
 30
0.0
 10
2.005146446827666
 20
3.877533729505381
 30
0.0
 10
2.000850223944528
 20
3.862755526099224
 30
0.0
 10
2.006742804966684
 20
3.848491551313852
 30
0.0
 10
2.018316401474471
 20
3.845686033518998
 30
0.0
 10
2.01913862208221
 20
3.845486359034061
 30
0.0
 10
2.019984884228203
 20
3.845486359034061
 30
0.0
 10
2.020828742220349
 20
3.845416638573194
 30
0.0
 10
2.021838486826355
 20
3.844935807808408
 30
0.0
 10
2.022872272970592
 20
3.844464593658939
 30
0.0
 10
2.023997416960128
 20
3.844183307661536
 30
0.0
 10
2.035525334545254
 20
3.841365639380064
 30
0.0
 10
2.048440448886746
 20
3.851061591751456
 30
0.0
 10
2.052736758215638
 20
3.865830308691077
 30
0.0
 10
2.05707857357566
 20
3.880620663015129
 30
0.0
 10
2.051161951015274
 20
3.894872486882643
 30
0.0
 10
2.039588354507487
 20
3.89769015516414
 30
0.0
  0
ENDBLK
  5
26A
330
267
100
AcDbEntity
  8
0
100
AcDbBlockEnd
  0
BLOCK
  5
26F
330
26D
100
AcDbEntity
  8
0
100
AcDbBlockBegin
  2
block 14
 70
     0
 10
0.0
 20
0.0
 30
0.0
  3
block 14
  1

  0
SPLINE
  5
271
330
26D
100
AcDbEntity
  8
TSP
 62
   250
420
  2301728
370
    18
100
AcDbSpline
210
0.0
220
0.0
230
1.0
 70
    11
 71
     3
 72
    17
 73
    13
 74
     0
 42
0.0000000001
 43
0.0000000001
 12
1.0
 22
0.0
 32
0.0
 13
1.0
 23
0.0
 33
0.0
 40
0.0
 40
0.0
 40
0.0
 40
0.0
 40
1.0
 40
1.0
 40
1.0
 40
2.0
 40
2.0
 40
2.0
 40
3.0
 40
3.0
 40
3.0
 40
4.0
 40
4.0
 40
4.0
 40
4.0
 10
2.111032593689464
 20
3.914088888396312
 30
0.0
 10
2.106712329268096
 20
3.899322706683064
 30
0.0
 10
2.112580868751997
 20
3.885046710204758
 30
0.0
 10
2.12417850679804
 20
3.882253214102838
 30
0.0
 10
2.135706424383165
 20
3.879435415180005
 30
0.0
 10
2.148619134570809
 20
3.889131367551398
 30
0.0
 10
2.15291785058437
 20
3.903900084491018
 30
0.0
 10
2.157259663413571
 20
3.91869043881507
 30
0.0
 10
2.151343040853186
 20
3.932942262682571
 30
0.0
 10
2.139769444345398
 20
3.935759930964094
 30
0.0
 10
2.128193443683787
 20
3.938565578476452
 30
0.0
 10
2.115352858110858
 20
3.928881646874187
 30
0.0
 10
2.111032593689464
 20
3.914088888396312
 30
0.0
  0
SPLINE
  5
272
330
26D
100
AcDbEntity
  8
TSP
 62
   250
420
  2301728
370
    18
100
AcDbSpline
210
0.0
220
0.0
230
1.0
 70
    11
 71
     3
 72
    29
 73
    25
 74
     0
 42
0.0000000001
 43
0.0000000001
 12
1.0
 22
0.0
 32
0.0
 13
1.0
 23
0.0
 33
0.0
 40
0.0
 40
0.0
 40
0.0
 40
0.0
 40
1.0
 40
1.0
 40
1.0
 40
2.0
 40
2.0
 40
2.0
 40
3.0
 40
3.0
 40
3.0
 40
4.0
 40
4.0
 40
4.0
 40
5.0
 40
5.0
 40
5.0
 40
6.0
 40
6.0
 40
6.0
 40
7.0
 40
7.0
 40
7.0
 40
8.0
 40
8.0
 40
8.0
 40
8.0
 10
2.139769444345398
 20
3.935759930964094
 30
0.0
 10
2.138971265275889
 20
3.935959475731452
 30
0.0
 10
2.138100961591691
 20
3.935959475731452
 30
0.0
 10
2.13725710359952
 20
3.936029196192332
 30
0.0
 10
2.136271400531768
 20
3.936510026957105
 30
0.0
 10
2.135237614387532
 20
3.936981241106549
 30
0.0
 10
2.134110066244173
 20
3.937250506334837
 30
0.0
 10
2.12253646973636
 20
3.94008019538545
 30
0.0
 10
2.109669438471378
 20
3.93037222224493
 30
0.0
 10
2.105327536665578
 20
3.915603505305297
 30
0.0
 10
2.101031313782439
 20
3.900825171750373
 30
0.0
 10
2.106923894804595
 20
3.886561327113744
 30
0.0
 10
2.118497491312382
 20
3.883755679601374
 30
0.0
 10
2.119319711920121
 20
3.88355613483399
 30
0.0
 10
2.120163569912291
 20
3.88355613483399
 30
0.0
 10
2.12100983205826
 20
3.883486414373098
 30
0.0
 10
2.122019576664267
 20
3.88300558360835
 30
0.0
 10
2.123053362808478
 20
3.882534369458881
 30
0.0
 10
2.12417850679804
 20
3.882253214102838
 30
0.0
 10
2.135706424383165
 20
3.879435415180005
 30
0.0
 10
2.148619134570809
 20
3.889131367551398
 30
0.0
 10
2.15291785058437
 20
3.903900084491018
 30
0.0
 10
2.157259663413571
 20
3.91869043881507
 30
0.0
 10
2.151343040853186
 20
3.932942262682571
 30
0.0
 10
2.139769444345398
 20
3.935759930964094
 30
0.0
  0
ENDBLK
  5
270
330
26D
100
AcDbEntity
  8
0
100
AcDbBlockEnd
  0
BLOCK
  5
275
330
273
100
AcDbEntity
  8
0
100
AcDbBlockBegin
  2
block 15
 70
     0
 10
0.0
 20
0.0
 30
0.0
  3
block 15
  1

  0
SPLINE
  5
277
330
273
100
AcDbEntity
  8
TSP
 62
   250
420
  2301728
370
    18
100
AcDbSpline
210
0.0
220
0.0
230
1.0
 70
    11
 71
     3
 72
    17
 73
    13
 74
     0
 42
0.0000000001
 43
0.0000000001
 12
1.0
 22
0.0
 32
0.0
 13
1.0
 23
0.0
 33
0.0
 40
0.0
 40
0.0
 40
0.0
 40
0.0
 40
1.0
 40
1.0
 40
1.0
 40
2.0
 40
2.0
 40
2.0
 40
3.0
 40
3.0
 40
3.0
 40
4.0
 40
4.0
 40
4.0
 40
4.0
 10
2.056939132653876
 20
3.771847127410954
 30
0.0
 10
2.052618868232508
 20
3.757080814625144
 30
0.0
 10
2.058487407716408
 20
3.7428049492194
 30
0.0
 10
2.070085045762451
 20
3.740011322476145
 30
0.0
 10
2.081612963347576
 20
3.737193654194634
 30
0.0
 10
2.094525673535246
 20
3.74688960656604
 30
0.0
 10
2.098824388182265
 20
3.761658323505672
 30
0.0
 10
2.103166202377982
 20
3.776448677829712
 30
0.0
 10
2.097249579817597
 20
3.790700501697213
 30
0.0
 10
2.085675983309809
 20
3.793518169978711
 30
0.0
 10
2.074099982648199
 20
3.796323817491093
 30
0.0
 10
2.061259397075269
 20
3.786640014114773
 30
0.0
 10
2.056939132653876
 20
3.771847127410954
 30
0.0
  0
SPLINE
  5
278
330
273
100
AcDbEntity
  8
TSP
 62
   250
420
  2301728
370
    18
100
AcDbSpline
210
0.0
220
0.0
230
1.0
 70
    11
 71
     3
 72
    29
 73
    25
 74
     0
 42
0.0000000001
 43
0.0000000001
 12
1.0
 22
0.0
 32
0.0
 13
1.0
 23
0.0
 33
0.0
 40
0.0
 40
0.0
 40
0.0
 40
0.0
 40
1.0
 40
1.0
 40
1.0
 40
2.0
 40
2.0
 40
2.0
 40
3.0
 40
3.0
 40
3.0
 40
4.0
 40
4.0
 40
4.0
 40
5.0
 40
5.0
 40
5.0
 40
6.0
 40
6.0
 40
6.0
 40
7.0
 40
7.0
 40
7.0
 40
8.0
 40
8.0
 40
8.0
 40
8.0
 10
2.085675983309809
 20
3.793518169978711
 30
0.0
 10
2.084877804240301
 20
3.793717714746094
 30
0.0
 10
2.084007500556102
 20
3.793717714746094
 30
0.0
 10
2.083163642563932
 20
3.793787435206986
 30
0.0
 10
2.08217793949618
 20
3.794268265971747
 30
0.0
 10
2.081144153351943
 20
3.794739480121204
 30
0.0
 10
2.080016605208584
 20
3.795008745349492
 30
0.0
 10
2.068443008700797
 20
3.797838434400092
 30
0.0
 10
2.055575977435789
 20
3.788130589523184
 30
0.0
 10
2.051234075629989
 20
3.773361744319939
 30
0.0
 10
2.046937852746851
 20
3.758583538282197
 30
0.0
 10
2.052830433769006
 20
3.744319566128385
 30
0.0
 10
2.064404030276794
 20
3.741514045701984
 30
0.0
 10
2.065226250884532
 20
3.741314373848645
 30
0.0
 10
2.066070108876703
 20
3.741314373848645
 30
0.0
 10
2.066916371022671
 20
3.741244653387753
 30
0.0
 10
2.067926115628678
 20
3.740763822622991
 30
0.0
 10
2.068959901772915
 20
3.740292608473522
 30
0.0
 10
2.070085045762451
 20
3.740011322476145
 30
0.0
 10
2.081612963347576
 20
3.737193654194634
 30
0.0
 10
2.094525673535246
 20
3.74688960656604
 30
0.0
 10
2.098824388182265
 20
3.761658323505672
 30
0.0
 10
2.103166202377982
 20
3.776448677829712
 30
0.0
 10
2.097249579817597
 20
3.790700501697213
 30
0.0
 10
2.085675983309809
 20
3.793518169978711
 30
0.0
  0
ENDBLK
  5
276
330
273
100
AcDbEntity
  8
0
100
AcDbBlockEnd
  0
BLOCK
  5
27B
330
279
100
AcDbEntity
  8
0
100
AcDbBlockBegin
  2
block 16
 70
     0
 10
0.0
 20
0.0
 30
0.0
  3
block 16
  1

  0
SPLINE
  5
27D
330
279
100
AcDbEntity
  8
TSP
 62
   250
420
  2301728
370
    18
100
AcDbSpline
210
0.0
220
0.0
230
1.0
 70
    11
 71
     3
 72
    17
 73
    13
 74
     0
 42
0.0000000001
 43
0.0000000001
 12
1.0
 22
0.0
 32
0.0
 13
1.0
 23
0.0
 33
0.0
 40
0.0
 40
0.0
 40
0.0
 40
0.0
 40
1.0
 40
1.0
 40
1.0
 40
2.0
 40
2.0
 40
2.0
 40
3.0
 40
3.0
 40
3.0
 40
4.0
 40
4.0
 40
4.0
 40
4.0
 10
1.918770008246055
 20
3.66787481221858
 30
0.0
 10
1.914473868315907
 20
3.653108374207098
 30
0.0
 10
1.920366366385047
 20
3.63883263329338
 30
0.0
 10
1.93193996289286
 20
3.636038882058086
 30
0.0
 10
1.943492005702233
 20
3.633209193007474
 30
0.0
 10
1.956358953281223
 20
3.642905145378891
 30
0.0
 10
1.960700855087023
 20
3.657685883087614
 30
0.0
 10
1.964997077970161
 20
3.672476237411666
 30
0.0
 10
1.959104496948006
 20
3.686728061279167
 30
0.0
 10
1.947555025767113
 20
3.68953370879155
 30
0.0
 10
1.935978941316838
 20
3.692363397842162
 30
0.0
 10
1.923114314205653
 20
3.682655424701642
 30
0.0
 10
1.918770008246055
 20
3.66787481221858
 30
0.0
  0
SPLINE
  5
27E
330
279
100
AcDbEntity
  8
TSP
 62
   250
420
  2301728
370
    18
100
AcDbSpline
210
0.0
220
0.0
230
1.0
 70
    11
 71
     3
 72
    29
 73
    25
 74
     0
 42
0.0000000001
 43
0.0000000001
 12
1.0
 22
0.0
 32
0.0
 13
1.0
 23
0.0
 33
0.0
 40
0.0
 40
0.0
 40
0.0
 40
0.0
 40
1.0
 40
1.0
 40
1.0
 40
2.0
 40
2.0
 40
2.0
 40
3.0
 40
3.0
 40
3.0
 40
4.0
 40
4.0
 40
4.0
 40
5.0
 40
5.0
 40
5.0
 40
6.0
 40
6.0
 40
6.0
 40
7.0
 40
7.0
 40
7.0
 40
8.0
 40
8.0
 40
8.0
 40
8.0
 10
1.947555025767113
 20
3.68953370879155
 30
0.0
 10
1.94670867983248
 20
3.68973325355892
 30
0.0
 10
1.945886459224741
 20
3.689745274328036
 30
0.0
 10
1.94504260123257
 20
3.68981499478894
 30
0.0
 10
1.944008815088333
 20
3.690295825553688
 30
0.0
 10
1.942975028944097
 20
3.690755018934043
 30
0.0
 10
1.941849884954561
 20
3.691024284162305
 30
0.0
 10
1.93029792583118
 20
3.693853973212931
 30
0.0
 10
1.917409257181766
 20
3.684158020841525
 30
0.0
 10
1.913110630144805
 20
3.669389429165853
 30
0.0
 10
1.908814407261666
 20
3.654610970346968
 30
0.0
 10
1.914709392437645
 20
3.64034725024064
 30
0.0
 10
1.926234905868973
 20
3.637529457428842
 30
0.0
 10
1.927057126476711
 20
3.637329912661471
 30
0.0
 10
1.92792743016091
 20
3.637342057884969
 30
0.0
 10
1.92877128815308
 20
3.637260192200579
 30
0.0
 10
1.929781032759062
 20
3.63678910249151
 30
0.0
 10
1.930790777365069
 20
3.636296126517234
 30
0.0
 10
1.93193996289286
 20
3.636038882058086
 30
0.0
 10
1.943492005702233
 20
3.633209193007474
 30
0.0
 10
1.956358953281223
 20
3.642905145378891
 30
0.0
 10
1.960700855087023
 20
3.657685883087614
 30
0.0
 10
1.964997077970161
 20
3.672476237411666
 30
0.0
 10
1.959104496948006
 20
3.686728061279167
 30
0.0
 10
1.947555025767113
 20
3.68953370879155
 30
0.0
  0
ENDBLK
  5
27C
330
279
100
AcDbEntity
  8
0
100
AcDbBlockEnd
  0
BLOCK
  5
281
330
27F
100
AcDbEntity
  8
0
100
AcDbBlockBegin
  2
block 17
 70
     0
 10
0.0
 20
0.0
 30
0.0
  3
block 17
  1

  0
SPLINE
  5
283
330
27F
100
AcDbEntity
  8
TSP
 62
   250
420
  2301728
370
    18
100
AcDbSpline
210
0.0
220
0.0
230
1.0
 70
    11
 71
     3
 72
    17
 73
    13
 74
     0
 42
0.0000000001
 43
0.0000000001
 12
1.0
 22
0.0
 32
0.0
 13
1.0
 23
0.0
 33
0.0
 40
0.0
 40
0.0
 40
0.0
 40
0.0
 40
1.0
 40
1.0
 40
1.0
 40
2.0
 40
2.0
 40
2.0
 40
3.0
 40
3.0
 40
3.0
 40
4.0
 40
4.0
 40
4.0
 40
4.0
 10
1.870006556237841
 20
3.56592173578685
 30
0.0
 10
1.865686291816448
 20
3.551140998078128
 30
0.0
 10
1.871578872838604
 20
3.536879557595297
 30
0.0
 10
1.883154873500214
 20
3.534061889313799
 30
0.0
 10
1.894704428469772
 20
3.531244221032302
 30
0.0
 10
1.907595501273009
 20
3.540964214941924
 30
0.0
 10
1.911913361540554
 20
3.555721033504887
 30
0.0
 10
1.916211988577516
 20
3.570487223898251
 30
0.0
 10
1.910317003401562
 20
3.58475106853488
 30
0.0
 10
1.898767448432005
 20
3.587568736816378
 30
0.0
 10
1.887167406232139
 20
3.590386405097875
 30
0.0
 10
1.874326820659209
 20
3.580700192365232
 30
0.0
 10
1.870006556237841
 20
3.56592173578685
 30
0.0
  0
SPLINE
  5
284
330
27F
100
AcDbEntity
  8
TSP
 62
   250
420
  2301728
370
    18
100
AcDbSpline
210
0.0
220
0.0
230
1.0
 70
    11
 71
     3
 72
    29
 73
    25
 74
     0
 42
0.0000000001
 43
0.0000000001
 12
1.0
 22
0.0
 32
0.0
 13
1.0
 23
0.0
 33
0.0
 40
0.0
 40
0.0
 40
0.0
 40
0.0
 40
1.0
 40
1.0
 40
1.0
 40
2.0
 40
2.0
 40
2.0
 40
3.0
 40
3.0
 40
3.0
 40
4.0
 40
4.0
 40
4.0
 40
5.0
 40
5.0
 40
5.0
 40
6.0
 40
6.0
 40
6.0
 40
7.0
 40
7.0
 40
7.0
 40
8.0
 40
8.0
 40
8.0
 40
8.0
 10
1.898767448432005
 20
3.587568736816378
 30
0.0
 10
1.897945227824266
 20
3.587768404785783
 30
0.0
 10
1.897077328293866
 20
3.587768404785783
 30
0.0
 10
1.896231066147897
 20
3.587825981275525
 30
0.0
 10
1.89524536308012
 20
3.588330853578529
 30
0.0
 10
1.894211576935883
 20
3.58879004695887
 30
0.0
 10
1.893084028792524
 20
3.589071332956261
 30
0.0
 10
1.881510432284737
 20
3.591901022006873
 30
0.0
 10
1.868643401019729
 20
3.582190767773644
 30
0.0
 10
1.864301499213954
 20
3.567412311157606
 30
0.0
 10
1.860005276330816
 20
3.552633977602682
 30
0.0
 10
1.865897857352946
 20
3.53838215373518
 30
0.0
 10
1.877447412322504
 20
3.535564485453683
 30
0.0
 10
1.878293674468498
 20
3.535364940686324
 30
0.0
 10
1.879139936614466
 20
3.535364940686324
 30
0.0
 10
1.879983794606611
 20
3.535295220225407
 30
0.0
 10
1.880993539212618
 20
3.534802368691531
 30
0.0
 10
1.882027325356855
 20
3.534343175311189
 30
0.0
 10
1.883154873500214
 20
3.534061889313799
 30
0.0
 10
1.894704428469772
 20
3.531244221032302
 30
0.0
 10
1.907595501273009
 20
3.540964214941924
 30
0.0
 10
1.911913361540554
 20
3.555721033504887
 30
0.0
 10
1.916211988577516
 20
3.570487223898251
 30
0.0
 10
1.910317003401562
 20
3.58475106853488
 30
0.0
 10
1.898767448432005
 20
3.587568736816378
 30
0.0
  0
ENDBLK
  5
282
330
27F
100
AcDbEntity
  8
0
100
AcDbBlockEnd
  0
BLOCK
  5
287
330
285
100
AcDbEntity
  8
0
100
AcDbBlockBegin
  2
block 18
 70
     0
 10
0.0
 20
0.0
 30
0.0
  3
block 18
  1

  0
SPLINE
  5
289
330
285
100
AcDbEntity
  8
TSP
 62
   250
420
  2301728
370
    18
100
AcDbSpline
210
0.0
220
0.0
230
1.0
 70
    11
 71
     3
 72
    17
 73
    13
 74
     0
 42
0.0000000001
 43
0.0000000001
 12
1.0
 22
0.0
 32
0.0
 13
1.0
 23
0.0
 33
0.0
 40
0.0
 40
0.0
 40
0.0
 40
0.0
 40
1.0
 40
1.0
 40
1.0
 40
2.0
 40
2.0
 40
2.0
 40
3.0
 40
3.0
 40
3.0
 40
4.0
 40
4.0
 40
4.0
 40
4.0
 10
2.015453054270311
 20
3.663554422571527
 30
0.0
 10
2.011132789848944
 20
3.648788109785717
 30
0.0
 10
2.017025370871099
 20
3.634512244379998
 30
0.0
 10
2.028623094753761
 20
3.631706596867591
 30
0.0
 10
2.040174968040497
 20
3.62890094935522
 30
0.0
 10
2.053041999305504
 20
3.638596901726601
 30
0.0
 10
2.05735985957305
 20
3.653353722755974
 30
0.0
 10
2.061658486610011
 20
3.668134335605866
 30
0.0
 10
2.055763501434032
 20
3.682395901681199
 30
0.0
 10
2.0442139464645
 20
3.685213444370169
 30
0.0
 10
2.032638031740917
 20
3.688031112651692
 30
0.0
 10
2.019773318691705
 20
3.678335160280274
 30
0.0
 10
2.015453054270311
 20
3.663554422571527
 30
0.0
  0
SPLINE
  5
28A
330
285
100
AcDbEntity
  8
TSP
 62
   250
420
  2301728
370
    18
100
AcDbSpline
210
0.0
220
0.0
230
1.0
 70
    11
 71
     3
 72
    29
 73
    25
 74
     0
 42
0.0000000001
 43
0.0000000001
 12
1.0
 22
0.0
 32
0.0
 13
1.0
 23
0.0
 33
0.0
 40
0.0
 40
0.0
 40
0.0
 40
0.0
 40
1.0
 40
1.0
 40
1.0
 40
2.0
 40
2.0
 40
2.0
 40
3.0
 40
3.0
 40
3.0
 40
4.0
 40
4.0
 40
4.0
 40
5.0
 40
5.0
 40
5.0
 40
6.0
 40
6.0
 40
6.0
 40
7.0
 40
7.0
 40
7.0
 40
8.0
 40
8.0
 40
8.0
 40
8.0
 10
2.0442139464645
 20
3.685213444370169
 30
0.0
 10
2.043367684318506
 20
3.68540109403687
 30
0.0
 10
2.042523826326361
 20
3.68540109403687
 30
0.0
 10
2.041701691885641
 20
3.685482709598444
 30
0.0
 10
2.040691947254143
 20
3.685965944517041
 30
0.0
 10
2.039682202622619
 20
3.686434880207217
 30
0.0
 10
2.038508889440613
 20
3.686716040510052
 30
0.0
 10
2.026956930317232
 20
3.689545729560665
 30
0.0
 10
2.014089899052224
 20
3.679849777189272
 30
0.0
 10
2.009772038784679
 20
3.665069039480525
 30
0.0
 10
2.005473411747718
 20
3.650278685156473
 30
0.0
 10
2.011368396923672
 20
3.636026861288971
 30
0.0
 10
2.022917951893229
 20
3.633209193007474
 30
0.0
 10
2.023740172500968
 20
3.633009648240103
 30
0.0
 10
2.024586434646961
 20
3.633009648240103
 30
0.0
 10
2.025430292639107
 20
3.632939927779211
 30
0.0
 10
2.026440037245114
 20
3.632447076245322
 30
0.0
 10
2.027473823389351
 20
3.631987882864981
 30
0.0
 10
2.028623094753761
 20
3.631706596867591
 30
0.0
 10
2.040174968040497
 20
3.62890094935522
 30
0.0
 10
2.053041999305504
 20
3.638596901726601
 30
0.0
 10
2.05735985957305
 20
3.653353722755974
 30
0.0
 10
2.061658486610011
 20
3.668134335605866
 30
0.0
 10
2.055763501434032
 20
3.682395901681199
 30
0.0
 10
2.0442139464645
 20
3.685213444370169
 30
0.0
  0
ENDBLK
  5
288
330
285
100
AcDbEntity
  8
0
100
AcDbBlockEnd
  0
BLOCK
  5
28D
330
28B
100
AcDbEntity
  8
0
100
AcDbBlockBegin
  2
block 19
 70
     0
 10
0.0
 20
0.0
 30
0.0
  3
block 19
  1

  0
SPLINE
  5
28F
330
28B
100
AcDbEntity
  8
TSP
 62
   250
420
  2301728
370
    18
100
AcDbSpline
210
0.0
220
0.0
230
1.0
 70
    11
 71
     3
 72
    17
 73
    13
 74
     0
 42
0.0000000001
 43
0.0000000001
 12
1.0
 22
0.0
 32
0.0
 13
1.0
 23
0.0
 33
0.0
 40
0.0
 40
0.0
 40
0.0
 40
0.0
 40
1.0
 40
1.0
 40
1.0
 40
2.0
 40
2.0
 40
2.0
 40
3.0
 40
3.0
 40
3.0
 40
4.0
 40
4.0
 40
4.0
 40
4.0
 10
1.974553673890493
 20
3.559711928953233
 30
0.0
 10
1.970257366536645
 20
3.544931068751212
 30
0.0
 10
1.976149947558775
 20
3.530669750027995
 30
0.0
 10
1.987677865143926
 20
3.527851959986896
 30
0.0
 10
1.999275503189943
 20
3.525046312474539
 30
0.0
 10
2.01214253445495
 20
3.534754285615059
 30
0.0
 10
2.016462798876319
 20
3.549510981785564
 30
0.0
 10
2.020759021759457
 20
3.564289315340488
 30
0.0
 10
2.014866440737326
 20
3.578553159977117
 30
0.0
 10
2.003314481613946
 20
3.581370828258615
 30
0.0
 10
1.991740885106158
 20
3.584176475770985
 30
0.0
 10
1.978873853841151
 20
3.574490140014884
 30
0.0
 10
1.974553673890493
 20
3.559711928953233
 30
0.0
  0
SPLINE
  5
290
330
28B
100
AcDbEntity
  8
TSP
 62
   250
420
  2301728
370
    18
100
AcDbSpline
210
0.0
220
0.0
230
1.0
 70
    11
 71
     3
 72
    29
 73
    25
 74
     0
 42
0.0000000001
 43
0.0000000001
 12
1.0
 22
0.0
 32
0.0
 13
1.0
 23
0.0
 33
0.0
 40
0.0
 40
0.0
 40
0.0
 40
0.0
 40
1.0
 40
1.0
 40
1.0
 40
2.0
 40
2.0
 40
2.0
 40
3.0
 40
3.0
 40
3.0
 40
4.0
 40
4.0
 40
4.0
 40
5.0
 40
5.0
 40
5.0
 40
6.0
 40
6.0
 40
6.0
 40
7.0
 40
7.0
 40
7.0
 40
8.0
 40
8.0
 40
8.0
 40
8.0
 10
2.003314481613946
 20
3.581370828258615
 30
0.0
 10
2.002468219467952
 20
3.581570373025986
 30
0.0
 10
2.001624446630406
 20
3.581570373025986
 30
0.0
 10
2.000802140868069
 20
3.581640093486878
 30
0.0
 10
1.999768354723831
 20
3.582132945020753
 30
0.0
 10
1.998736972733417
 20
3.582589734247297
 30
0.0
 10
1.997609509643199
 20
3.582873424398485
 30
0.0
 10
1.986081507004908
 20
3.585691092679983
 30
0.0
 10
1.973168796817264
 20
3.57598071538564
 30
0.0
 10
1.968872573934126
 20
3.561214402599843
 30
0.0
 10
1.964576435269641
 20
3.546433664891095
 30
0.0
 10
1.970444890534888
 20
3.532172224408289
 30
0.0
 10
1.982020891196498
 20
3.529366576895907
 30
0.0
 10
1.982840707650414
 20
3.529167032128536
 30
0.0
 10
1.983686969796407
 20
3.52915513308076
 30
0.0
 10
1.984530912511319
 20
3.529085290898529
 30
0.0
 10
1.985540657142842
 20
3.528602177687314
 30
0.0
 10
1.986574443313202
 20
3.528133245984312
 30
0.0
 10
1.987677865143926
 20
3.527851959986896
 30
0.0
 10
1.999275503189943
 20
3.525046312474539
 30
0.0
 10
2.01214253445495
 20
3.534754285615059
 30
0.0
 10
2.016462798876319
 20
3.549510981785564
 30
0.0
 10
2.020759021759457
 20
3.564289315340488
 30
0.0
 10
2.014866440737326
 20
3.578553159977117
 30
0.0
 10
2.003314481613946
 20
3.581370828258615
 30
0.0
  0
ENDBLK
  5
28E
330
28B
100
AcDbEntity
  8
0
100
AcDbBlockEnd
  0
BLOCK
  5
293
330
291
100
AcDbEntity
  8
0
100
AcDbBlockBegin
  2
block 20
 70
     0
 10
0.0
 20
0.0
 30
0.0
  3
block 20
  1

  0
SPLINE
  5
295
330
291
100
AcDbEntity
  8
TSP
 62
   250
420
  2301728
370
    18
100
AcDbSpline
210
0.0
220
0.0
230
1.0
 70
    11
 71
     3
 72
    17
 73
    13
 74
     0
 42
0.0000000001
 43
0.0000000001
 12
1.0
 22
0.0
 32
0.0
 13
1.0
 23
0.0
 33
0.0
 40
0.0
 40
0.0
 40
0.0
 40
0.0
 40
1.0
 40
1.0
 40
1.0
 40
2.0
 40
2.0
 40
2.0
 40
3.0
 40
3.0
 40
3.0
 40
4.0
 40
4.0
 40
4.0
 40
4.0
 10
1.92050829456606
 20
3.430264952124894
 30
0.0
 10
1.916187947039286
 20
3.415486737419807
 30
0.0
 10
1.922104569599671
 20
3.401222773933341
 30
0.0
 10
1.933654124569228
 20
3.398417244839581
 30
0.0
 10
1.945230125230839
 20
3.395611478908576
 30
0.0
 10
1.958118793880254
 20
3.405307431279981
 30
0.0
 10
1.962415016763392
 20
3.420076148219626
 30
0.0
 10
1.96673528118476
 20
3.434866502543652
 30
0.0
 10
1.96084270016263
 20
3.449106305642065
 30
0.0
 10
1.949269103654817
 20
3.451923973923537
 30
0.0
 10
1.937717144531462
 20
3.454741642205047
 30
0.0
 10
1.924826071728224
 20
3.445045689833642
 30
0.0
 10
1.92050829456606
 20
3.430264952124894
 30
0.0
  0
SPLINE
  5
296
330
291
100
AcDbEntity
  8
TSP
 62
   250
420
  2301728
370
    18
100
AcDbSpline
210
0.0
220
0.0
230
1.0
 70
    11
 71
     3
 72
    29
 73
    25
 74
     0
 42
0.0000000001
 43
0.0000000001
 12
1.0
 22
0.0
 32
0.0
 13
1.0
 23
0.0
 33
0.0
 40
0.0
 40
0.0
 40
0.0
 40
0.0
 40
1.0
 40
1.0
 40
1.0
 40
2.0
 40
2.0
 40
2.0
 40
3.0
 40
3.0
 40
3.0
 40
4.0
 40
4.0
 40
4.0
 40
5.0
 40
5.0
 40
5.0
 40
6.0
 40
6.0
 40
6.0
 40
7.0
 40
7.0
 40
7.0
 40
8.0
 40
8.0
 40
8.0
 40
8.0
 10
1.949269103654817
 20
3.451923973923537
 30
0.0
 10
1.948446883047078
 20
3.45212351869092
 30
0.0
 10
1.94760062090111
 20
3.45213553946001
 30
0.0
 10
1.94673272137071
 20
3.452205259920927
 30
0.0
 10
1.945722976764728
 20
3.452686090685701
 30
0.0
 10
1.94473727369695
 20
3.453166921450449
 30
0.0
 10
1.943585684015362
 20
3.453414549294318
 30
0.0
 10
1.932012087507575
 20
3.456244238344917
 30
0.0
 10
1.919145056242567
 20
3.446548405608016
 30
0.0
 10
1.914848833359429
 20
3.431767548264765
 30
0.0
 10
1.910504527399805
 20
3.417001354367067
 30
0.0
 10
1.916399512575784
 20
3.402737390842339
 30
0.0
 10
1.927973109083571
 20
3.399931861786841
 30
0.0
 10
1.92879532969131
 20
3.399720177793458
 30
0.0
 10
1.929639187683455
 20
3.399720177793458
 30
0.0
 10
1.930509574725748
 20
3.399650457332566
 30
0.0
 10
1.93149527781841
 20
3.399179243183109
 30
0.0
 10
1.9325506179641
 20
3.398698412418348
 30
0.0
 10
1.933654124569228
 20
3.398417244839581
 30
0.0
 10
1.945230125230839
 20
3.395611478908576
 30
0.0
 10
1.958118793880254
 20
3.405307431279981
 30
0.0
 10
1.962415016763392
 20
3.420076148219626
 30
0.0
 10
1.96673528118476
 20
3.434866502543652
 30
0.0
 10
1.96084270016263
 20
3.449106305642065
 30
0.0
 10
1.949269103654817
 20
3.451923973923537
 30
0.0
  0
ENDBLK
  5
294
330
291
100
AcDbEntity
  8
0
100
AcDbBlockEnd
  0
ENDSEC
  0
SECTION
  2
ENTITIES
  0
POLYLINE
  5
41
330
1F
100
AcDbEntity
  8
Wood
 62
   250
420
  2301728
370
    35
100
AcDb2dPolyline
 66
     1
 10
0.0
 20
0.0
 30
0.0
  0
VERTEX
  5
42
330
41
100
AcDbEntity
  8
Wood
 62
   250
420
  2301728
370
    35
100
AcDbVertex
100
AcDb2dVertex
 10
2.99568426792694
 20
2.407372028864857
 30
0.0
  0
VERTEX
  5
43
330
41
100
AcDbEntity
  8
Wood
 62
   250
420
  2301728
370
    35
100
AcDbVertex
100
AcDb2dVertex
 10
2.871863133539566
 20
2.371992501193795
 30
0.0
  0
VERTEX
  5
44
330
41
100
AcDbEntity
  8
Wood
 62
   250
420
  2301728
370
    35
100
AcDbVertex
100
AcDb2dVertex
 10
2.810725501800233
 20
2.39112716147742
 30
0.0
  0
VERTEX
  5
45
330
41
100
AcDbEntity
  8
Wood
 62
   250
420
  2301728
370
    35
100
AcDbVertex
100
AcDb2dVertex
 10
2.81295655654872
 20
2.303740978289827
 30
0.0
  0
VERTEX
  5
46
330
41
100
AcDbEntity
  8
Wood
 62
   250
420
  2301728
370
    35
100
AcDbVertex
100
AcDb2dVertex
 10
2.679576506557901
 20
2.331773411875373
 30
0.0
  0
VERTEX
  5
47
330
41
100
AcDbEntity
  8
Wood
 62
   250
420
  2301728
370
    35
100
AcDbVertex
100
AcDb2dVertex
 10
2.447919456557631
 20
2.271364238744657
 30
0.0
  0
VERTEX
  5
48
330
41
100
AcDbEntity
  8
Wood
 62
   250
420
  2301728
370
    35
100
AcDbVertex
100
AcDb2dVertex
 10
0.3994097484344744
 20
2.726182059131841
 30
0.0
  0
VERTEX
  5
49
330
41
100
AcDbEntity
  8
Wood
 62
   250
420
  2301728
370
    35
100
AcDbVertex
100
AcDb2dVertex
 10
0.3944091083546305
 20
2.963005635699485
 30
0.0
  0
VERTEX
  5
4A
330
41
100
AcDbEntity
  8
Wood
 62
   250
420
  2301728
370
    35
100
AcDbVertex
100
AcDb2dVertex
 10
0.4047998614436084
 20
2.969907961327622
 30
0.0
  0
VERTEX
  5
4B
330
41
100
AcDbEntity
  8
Wood
 62
   250
420
  2301728
370
    35
100
AcDbVertex
100
AcDb2dVertex
 10
0.3928824706379399
 20
2.983383243510048
 30
0.0
  0
VERTEX
  5
4C
330
41
100
AcDbEntity
  8
Wood
 62
   250
420
  2301728
370
    35
100
AcDbVertex
100
AcDb2dVertex
 10
0.3901729892100749
 20
3.201519332405244
 30
0.0
  0
VERTEX
  5
4D
330
41
100
AcDbEntity
  8
Wood
 62
   250
420
  2301728
370
    35
100
AcDbVertex
100
AcDb2dVertex
 10
0.6599575215173747
 20
3.246080323529453
 30
0.0
  0
VERTEX
  5
4E
330
41
100
AcDbEntity
  8
Wood
 62
   250
420
  2301728
370
    35
100
AcDbVertex
100
AcDb2dVertex
 10
0.7089325402993154
 20
3.247794485205822
 30
0.0
  0
VERTEX
  5
4F
330
41
100
AcDbEntity
  8
Wood
 62
   250
420
  2301728
370
    35
100
AcDbVertex
100
AcDb2dVertex
 10
0.7075357268923881
 20
3.287787584064795
 30
0.0
  0
VERTEX
  5
50
330
41
100
AcDbEntity
  8
Wood
 62
   250
420
  2301728
370
    35
100
AcDbVertex
100
AcDb2dVertex
 10
0.8436973862970818
 20
3.273749729887602
 30
0.0
  0
VERTEX
  5
51
330
41
100
AcDbEntity
  8
Wood
 62
   250
420
  2301728
370
    35
100
AcDbVertex
100
AcDb2dVertex
 10
1.093140310382965
 20
3.315973883495063
 30
0.0
  0
VERTEX
  5
52
330
41
100
AcDbEntity
  8
Wood
 62
   250
420
  2301728
370
    35
100
AcDbVertex
100
AcDb2dVertex
 10
2.387017431893052
 20
3.056306147069828
 30
0.0
  0
VERTEX
  5
53
330
41
100
AcDbEntity
  8
Wood
 62
   250
420
  2301728
370
    35
100
AcDbVertex
100
AcDb2dVertex
 10
2.990707669511671
 20
2.947438739690357
 30
0.0
  0
VERTEX
  5
54
330
41
100
AcDbEntity
  8
Wood
 62
   250
420
  2301728
370
    35
100
AcDbVertex
100
AcDb2dVertex
 10
2.99568426792694
 20
2.407372028864857
 30
0.0
  0
SEQEND
  5
56
330
41
100
AcDbEntity
  8
Wood
 62
   250
420
  2301728
370
    35
  0
HATCH
  5
55
330
1F
100
AcDbEntity
  8
Wood
 62
    43
420
 15510365
100
AcDbHatch
 10
0.0
 20
0.0
 30
0.0
210
0.0
220
0.0
230
1.0
  2
SOLID
 70
     1
 71
     0
 91
        1
 92
        1
 93
       18
 72
     1
 10
2.99568426792694
 20
2.407372028864857
 11
2.871863133539566
 21
2.371992501193795
 72
     1
 10
2.871863133539566
 20
2.371992501193795
 11
2.810725501800233
 21
2.39112716147742
 72
     1
 10
2.810725501800233
 20
2.39112716147742
 11
2.81295655654872
 21
2.303740978289827
 72
     1
 10
2.81295655654872
 20
2.303740978289827
 11
2.679576506557901
 21
2.331773411875373
 72
     1
 10
2.679576506557901
 20
2.331773411875373
 11
2.447919456557631
 21
2.271364238744657
 72
     1
 10
2.447919456557631
 20
2.271364238744657
 11
0.3994097484344743
 21
2.726182059131841
 72
     1
 10
0.3994097484344744
 20
2.726182059131841
 11
0.3944091083546305
 21
2.963005635699485
 72
     1
 10
0.3944091083546305
 20
2.963005635699485
 11
0.4047998614436084
 21
2.969907961327622
 72
     1
 10
0.4047998614436084
 20
2.969907961327622
 11
0.3928824706379399
 21
2.983383243510048
 72
     1
 10
0.3928824706379399
 20
2.983383243510048
 11
0.3901729892100749
 21
3.201519332405244
 72
     1
 10
0.3901729892100749
 20
3.201519332405244
 11
0.6599575215173747
 21
3.246080323529453
 72
     1
 10
0.6599575215173747
 20
3.246080323529453
 11
0.7089325402993154
 21
3.247794485205822
 72
     1
 10
0.7089325402993154
 20
3.247794485205822
 11
0.7075357268923881
 21
3.287787584064795
 72
     1
 10
0.7075357268923881
 20
3.287787584064795
 11
0.8436973862970818
 21
3.273749729887602
 72
     1
 10
0.8436973862970818
 20
3.273749729887602
 11
1.093140310382965
 21
3.315973883495063
 72
     1
 10
1.093140310382965
 20
3.315973883495063
 11
2.387017431893052
 21
3.056306147069828
 72
     1
 10
2.387017431893052
 20
3.056306147069828
 11
2.990707669511671
 21
2.947438739690357
 72
     1
 10
2.990707669511671
 20
2.947438739690357
 11
2.99568426792694
 21
2.407372028864857
 97
        0
 75
     2
 76
     1
 98
        0
  0
POLYLINE
  5
57
330
1F
100
AcDbEntity
  8
Wood
 62
   250
420
  2301728
370
    35
100
AcDb2dPolyline
 66
     1
 10
0.0
 20
0.0
 30
0.0
  0
VERTEX
  5
58
330
57
100
AcDbEntity
  8
Wood
 62
   250
420
  2301728
370
    35
100
AcDbVertex
100
AcDb2dVertex
 10
1.752921860864767
 20
2.935276125495736
 30
0.0
  0
VERTEX
  5
59
330
57
100
AcDbEntity
  8
Wood
 62
   250
420
  2301728
370
    35
100
AcDbVertex
100
AcDb2dVertex
 10
3.235984250923795
 20
3.20283440454687
 30
0.0
  0
VERTEX
  5
5A
330
57
100
AcDbEntity
  8
Wood
 62
   250
420
  2301728
370
    35
100
AcDbVertex
100
AcDb2dVertex
 10
3.238400425516703
 20
3.46118477445283
 30
0.0
  0
VERTEX
  5
5B
330
57
100
AcDbEntity
  8
Wood
 62
   250
420
  2301728
370
    35
100
AcDbVertex
100
AcDb2dVertex
 10
3.1962123342166
 20
3.498939606101847
 30
0.0
  0
VERTEX
  5
5C
330
57
100
AcDbEntity
  8
Wood
 62
   250
420
  2301728
370
    35
100
AcDbVertex
100
AcDb2dVertex
 10
3.277352525769983
 20
3.609660506303309
 30
0.0
  0
VERTEX
  5
5D
330
57
100
AcDbEntity
  8
Wood
 62
   250
420
  2301728
370
    35
100
AcDbVertex
100
AcDb2dVertex
 10
3.237015632914209
 20
3.640945760012477
 30
0.0
  0
VERTEX
  5
5E
330
57
100
AcDbEntity
  8
Wood
 62
   250
420
  2301728
370
    35
100
AcDbVertex
100
AcDb2dVertex
 10
3.235467357851677
 20
3.825601602757375
 30
0.0
  0
VERTEX
  5
5F
330
57
100
AcDbEntity
  8
Wood
 62
   250
420
  2301728
370
    35
100
AcDbVertex
100
AcDb2dVertex
 10
3.010195740407426
 20
3.863505491943467
 30
0.0
  0
VERTEX
  5
60
330
57
100
AcDbEntity
  8
Wood
 62
   250
420
  2301728
370
    35
100
AcDbVertex
100
AcDb2dVertex
 10
2.478464328089633
 20
3.78444248929385
 30
0.0
  0
VERTEX
  5
61
330
57
100
AcDbEntity
  8
Wood
 62
   250
420
  2301728
370
    35
100
AcDbVertex
100
AcDb2dVertex
 10
1.752921860864767
 20
2.935276125495736
 30
0.0
  0
SEQEND
  5
63
330
57
100
AcDbEntity
  8
Wood
 62
   250
420
  2301728
370
    35
  0
HATCH
  5
62
330
1F
100
AcDbEntity
  8
Wood
 62
    43
420
 15510365
100
AcDbHatch
 10
0.0
 20
0.0
 30
0.0
210
0.0
220
0.0
230
1.0
  2
SOLID
 70
     1
 71
     0
 91
        1
 92
        1
 93
        9
 72
     1
 10
1.752921860864767
 20
2.935276125495736
 11
3.235984250923795
 21
3.20283440454687
 72
     1
 10
3.235984250923795
 20
3.20283440454687
 11
3.238400425516703
 21
3.46118477445283
 72
     1
 10
3.238400425516703
 20
3.46118477445283
 11
3.1962123342166
 21
3.498939606101847
 72
     1
 10
3.1962123342166
 20
3.498939606101847
 11
3.277352525769983
 21
3.609660506303309
 72
     1
 10
3.277352525769983
 20
3.609660506303309
 11
3.237015632914209
 21
3.640945760012477
 72
     1
 10
3.237015632914209
 20
3.640945760012477
 11
3.235467357851677
 21
3.825601602757375
 72
     1
 10
3.235467357851677
 20
3.825601602757375
 11
3.010195740407426
 21
3.863505491943467
 72
     1
 10
3.010195740407426
 20
3.863505491943467
 11
2.478464328089633
 21
3.78444248929385
 72
     1
 10
2.478464328089633
 20
3.78444248929385
 11
1.752921860864767
 21
2.935276125495736
 97
        0
 75
     2
 76
     1
 98
        0
  0
SPLINE
  5
64
330
1F
100
AcDbEntity
  8
Wood
370
     0
100
AcDbSpline
210
0.0
220
0.0
230
1.0
 70
    11
 71
     3
 72
    38
 73
    34
 74
     0
 42
0.0000000001
 43
0.0000000001
 12
1.0
 22
0.0
 32
0.0
 13
1.0
 23
0.0
 33
0.0
 40
0.0
 40
0.0
 40
0.0
 40
0.0
 40
1.0
 40
1.0
 40
1.0
 40
2.0
 40
2.0
 40
2.0
 40
3.0
 40
3.0
 40
3.0
 40
4.0
 40
4.0
 40
4.0
 40
5.0
 40
5.0
 40
5.0
 40
6.0
 40
6.0
 40
6.0
 40
7.0
 40
7.0
 40
7.0
 40
8.0
 40
8.0
 40
8.0
 40
9.0
 40
9.0
 40
9.0
 40
10.0
 40
10.0
 40
10.0
 40
11.0
 40
11.0
 40
11.0
 40
11.0
 10
0.5093468972666338
 20
1.825256667661051
 30
0.0
 10
0.5093468972666338
 20
1.825256667661051
 30
0.0
 10
0.6901152278450127
 20
1.774358327057295
 30
0.0
 10
0.6901152278450127
 20
1.774358327057295
 30
0.0
 10
0.6901152278450127
 20
1.774358327057295
 30
0.0
 10
3.068044489715779
 20
4.3307071086771
 30
0.0
 10
3.068044489715779
 20
4.3307071086771
 30
0.0
 10
3.068044489715779
 20
4.3307071086771
 30
0.0
 10
2.948471495135082
 20
4.525140645023422
 30
0.0
 10
2.948471495135082
 20
4.525140645023422
 30
0.0
 10
2.948471495135082
 20
4.525140645023422
 30
0.0
 10
2.965867952204134
 20
4.612384983135434
 30
0.0
 10
2.965867952204134
 20
4.612384983135434
 30
0.0
 10
2.965867952204134
 20
4.612384983135434
 30
0.0
 10
2.856976613062569
 20
4.617563679688765
 30
0.0
 10
2.856976613062569
 20
4.617563679688765
 30
0.0
 10
2.856976613062569
 20
4.617563679688765
 30
0.0
 10
2.854089331009845
 20
4.677126441456658
 30
0.0
 10
2.854089331009845
 20
4.677126441456658
 30
0.0
 10
2.854089331009845
 20
4.677126441456658
 30
0.0
 10
2.717283255130446
 20
4.896293912342268
 30
0.0
 10
2.711272870570939
 20
4.904254065652885
 30
0.0
 10
2.705284123395839
 20
4.912211814809666
 30
0.0
 10
2.696951326242545
 20
4.916837406766667
 30
0.0
 10
2.683050508833301
 20
4.917166775840529
 30
0.0
 10
2.669152095577904
 20
4.917496144914391
 30
0.0
 10
2.503255865120132
 20
4.916601799691938
 30
0.0
 10
2.503255865120132
 20
4.916601799691938
 30
0.0
 10
2.503255865120132
 20
4.916601799691938
 30
0.0
 10
0.4971386038409314
 20
2.806406268078376
 30
0.0
 10
0.4971386038409314
 20
2.806406268078376
 30
0.0
 10
0.4971386038409314
 20
2.806406268078376
 30
0.0
 10
0.5093468972666338
 20
1.825256667661051
 30
0.0
 10
0.5093468972666338
 20
1.825256667661051
 30
0.0
  0
SPLINE
  5
65
330
1F
100
AcDbEntity
  8
Wood
 62
   250
420
  2301728
370
    35
100
AcDbSpline
210
0.0
220
0.0
230
1.0
 70
    11
 71
     3
 72
    38
 73
    34
 74
     0
 42
0.0000000001
 43
0.0000000001
 12
1.0
 22
0.0
 32
0.0
 13
1.0
 23
0.0
 33
0.0
 40
0.0
 40
0.0
 40
0.0
 40
0.0
 40
1.0
 40
1.0
 40
1.0
 40
2.0
 40
2.0
 40
2.0
 40
3.0
 40
3.0
 40
3.0
 40
4.0
 40
4.0
 40
4.0
 40
5.0
 40
5.0
 40
5.0
 40
6.0
 40
6.0
 40
6.0
 40
7.0
 40
7.0
 40
7.0
 40
8.0
 40
8.0
 40
8.0
 40
9.0
 40
9.0
 40
9.0
 40
10.0
 40
10.0
 40
10.0
 40
11.0
 40
11.0
 40
11.0
 40
11.0
 10
0.4969727172229012
 20
2.811149663572741
 30
0.0
 10
0.4969727172229012
 20
2.811149663572741
 30
0.0
 10
0.5093468972666338
 20
1.825256667661051
 30
0.0
 10
0.5093468972666338
 20
1.825256667661051
 30
0.0
 10
0.5093468972666338
 20
1.825256667661051
 30
0.0
 10
0.6901152278450127
 20
1.774358327057295
 30
0.0
 10
0.6901152278450127
 20
1.774358327057295
 30
0.0
 10
0.6901152278450127
 20
1.774358327057295
 30
0.0
 10
3.068044489715779
 20
4.3307071086771
 30
0.0
 10
3.068044489715779
 20
4.3307071086771
 30
0.0
 10
3.068044489715779
 20
4.3307071086771
 30
0.0
 10
2.948471495135082
 20
4.525140645023422
 30
0.0
 10
2.948471495135082
 20
4.525140645023422
 30
0.0
 10
2.948471495135082
 20
4.525140645023422
 30
0.0
 10
2.965867952204134
 20
4.612384983135434
 30
0.0
 10
2.965867952204134
 20
4.612384983135434
 30
0.0
 10
2.965867952204134
 20
4.612384983135434
 30
0.0
 10
2.856976613062569
 20
4.617563679688765
 30
0.0
 10
2.856976613062569
 20
4.617563679688765
 30
0.0
 10
2.856976613062569
 20
4.617563679688765
 30
0.0
 10
2.854089331009845
 20
4.677126441456658
 30
0.0
 10
2.854089331009845
 20
4.677126441456658
 30
0.0
 10
2.854089331009845
 20
4.677126441456658
 30
0.0
 10
2.717283255130446
 20
4.896293912342268
 30
0.0
 10
2.711272870570939
 20
4.904254065652885
 30
0.0
 10
2.705284123395839
 20
4.912211814809666
 30
0.0
 10
2.696951326242545
 20
4.916837406766667
 30
0.0
 10
2.683050508833301
 20
4.917166775840529
 30
0.0
 10
2.669152095577904
 20
4.917496144914391
 30
0.0
 10
2.503255865120132
 20
4.916601799691938
 30
0.0
 10
2.503255865120132
 20
4.916601799691938
 30
0.0
 10
2.503255865120132
 20
4.916601799691938
 30
0.0
 10
0.4969727172229012
 20
2.811149663572741
 30
0.0
 10
0.4969727172229012
 20
2.811149663572741
 30
0.0
  0
HATCH
  5
66
330
1F
100
AcDbEntity
  8
Wood
 62
    43
420
 15510365
100
AcDbHatch
 10
0.0
 20
0.0
 30
0.0
210
0.0
220
0.0
230
1.0
  2
SOLID
 70
     1
 71
     0
 91
        1
 92
        1
 93
        1
 72
     4
 94
        3
 73
     0
 74
     1
 95
       38
 96
       34
 40
0.0
 40
0.0
 40
0.0
 40
0.0
 40
1.0
 40
1.0
 40
1.0
 40
2.0
 40
2.0
 40
2.0
 40
3.0
 40
3.0
 40
3.0
 40
4.0
 40
4.0
 40
4.0
 40
5.0
 40
5.0
 40
5.0
 40
6.0
 40
6.0
 40
6.0
 40
7.0
 40
7.0
 40
7.0
 40
8.0
 40
8.0
 40
8.0
 40
9.0
 40
9.0
 40
9.0
 40
10.0
 40
10.0
 40
10.0
 40
11.0
 40
11.0
 40
11.0
 40
11.0
 10
0.4969727172229012
 20
2.811149663572741
 10
0.4969727172229012
 20
2.811149663572741
 10
0.5093468972666338
 20
1.825256667661051
 10
0.5093468972666338
 20
1.825256667661051
 10
0.5093468972666338
 20
1.825256667661051
 10
0.6901152278450127
 20
1.774358327057295
 10
0.6901152278450127
 20
1.774358327057295
 10
0.6901152278450127
 20
1.774358327057295
 10
3.068044489715779
 20
4.3307071086771
 10
3.068044489715779
 20
4.3307071086771
 10
3.068044489715779
 20
4.3307071086771
 10
2.948471495135082
 20
4.525140645023422
 10
2.948471495135082
 20
4.525140645023422
 10
2.948471495135082
 20
4.525140645023422
 10
2.965867952204134
 20
4.612384983135434
 10
2.965867952204134
 20
4.612384983135434
 10
2.965867952204134
 20
4.612384983135434
 10
2.856976613062569
 20
4.617563679688765
 10
2.856976613062569
 20
4.617563679688765
 10
2.856976613062569
 20
4.617563679688765
 10
2.854089331009845
 20
4.677126441456658
 10
2.854089331009845
 20
4.677126441456658
 10
2.854089331009845
 20
4.677126441456658
 10
2.717283255130446
 20
4.896293912342268
 10
2.711272870570939
 20
4.904254065652885
 10
2.705284123395839
 20
4.912211814809666
 10
2.696951326242545
 20
4.916837406766667
 10
2.683050508833301
 20
4.917166775840529
 10
2.669152095577904
 20
4.917496144914391
 10
2.503255865120132
 20
4.916601799691938
 10
2.503255865120132
 20
4.916601799691938
 10
2.503255865120132
 20
4.916601799691938
 10
0.4969727172229012
 20
2.811149663572741
 10
0.4969727172229012
 20
2.811149663572741
 97
        0
 97
        0
 75
     2
 76
     1
 98
        0
  0
POLYLINE
  5
67
330
1F
100
AcDbEntity
  8
Wood
 62
   250
420
  2301728
370
    25
100
AcDb2dPolyline
 66
     1
 10
0.0
 20
0.0
 30
0.0
  0
VERTEX
  5
68
330
67
100
AcDbEntity
  8
Wood
 62
   250
420
  2301728
370
    25
100
AcDbVertex
100
AcDb2dVertex
 10
0.3937768158830042
 20
3.200497567030134
 30
0.0
  0
VERTEX
  5
69
330
67
100
AcDbEntity
  8
Wood
 62
   250
420
  2301728
370
    25
100
AcDbVertex
100
AcDb2dVertex
 10
0.8056973299980603
 20
3.131459997500492
 30
0.0
  0
SEQEND
  5
6A
330
67
100
AcDbEntity
  8
Wood
 62
   250
420
  2301728
370
    25
  0
POLYLINE
  5
6B
330
1F
100
AcDbEntity
  8
Wood
 62
   250
420
  2301728
370
    25
100
AcDb2dPolyline
 66
     1
 10
0.0
 20
0.0
 30
0.0
  0
VERTEX
  5
6C
330
6B
100
AcDbEntity
  8
Wood
 62
   250
420
  2301728
370
    25
100
AcDbVertex
100
AcDb2dVertex
 10
2.511521444002028
 20
3.72675722244551
 30
0.0
  0
VERTEX
  5
6D
330
6B
100
AcDbEntity
  8
Wood
 62
   250
420
  2301728
370
    25
100
AcDbVertex
100
AcDb2dVertex
 10
3.225675355404014
 20
3.825260212914397
 30
0.0
  0
SEQEND
  5
6E
330
6B
100
AcDbEntity
  8
Wood
 62
   250
420
  2301728
370
    25
  0
POLYLINE
  5
6F
330
1F
100
AcDbEntity
  8
Wood
370
     0
100
AcDb2dPolyline
 66
     1
 10
0.0
 20
0.0
 30
0.0
  0
VERTEX
  5
70
330
6F
100
AcDbEntity
  8
Wood
370
     0
100
AcDbVertex
100
AcDb2dVertex
 10
1.803000385014608
 20
2.413947389572968
 30
0.0
  0
VERTEX
  5
71
330
6F
100
AcDbEntity
  8
Wood
370
     0
100
AcDbVertex
100
AcDb2dVertex
 10
1.80244742963512
 20
2.33628120029501
 30
0.0
  0
SEQEND
  5
72
330
6F
100
AcDbEntity
  8
Wood
370
     0
  0
SPLINE
  5
73
330
1F
100
AcDbEntity
  8
Wood
 62
   250
420
  2301728
370
    15
100
AcDbSpline
210
0.0
220
0.0
230
1.0
 70
     8
 71
     3
 72
     8
 73
     4
 74
     0
 42
0.0000000001
 43
0.0000000001
 12
1.0
 22
0.0
 32
0.0
 13
1.0
 23
0.0
 33
0.0
 40
0.0
 40
0.0
 40
0.0
 40
0.0
 40
1.0
 40
1.0
 40
1.0
 40
1.0
 10
0.7491516306337315
 20
3.266364169340881
 30
0.0
 10
0.7509595543549115
 20
3.261517395232103
 30
0.0
 10
0.7484592343149895
 20
3.255189662367848
 30
0.0
 10
0.7454179796510642
 20
3.248544581198846
 30
0.0
  0
SPLINE
  5
74
330
1F
100
AcDbEntity
  8
Wood
 62
   250
420
  2301728
370
    15
100
AcDbSpline
210
0.0
220
0.0
230
1.0
 70
     8
 71
     3
 72
     8
 73
     4
 74
     0
 42
0.0000000001
 43
0.0000000001
 12
1.0
 22
0.0
 32
0.0
 13
1.0
 23
0.0
 33
0.0
 40
0.0
 40
0.0
 40
0.0
 40
0.0
 40
1.0
 40
1.0
 40
1.0
 40
1.0
 10
0.7265429675035572
 20
3.281919044580895
 30
0.0
 10
0.7253673362540035
 20
3.268794768856752
 30
0.0
 10
0.7247110022435284
 20
3.259356060944494
 30
0.0
 10
0.7274685667490909
 20
3.250470308411713
 30
0.0
  0
POLYLINE
  5
75
330
1F
100
AcDbEntity
  8
Wood
 62
   250
420
  2301728
370
    25
100
AcDb2dPolyline
 66
     1
 10
0.0
 20
0.0
 30
0.0
  0
VERTEX
  5
76
330
75
100
AcDbEntity
  8
Wood
 62
   250
420
  2301728
370
    25
100
AcDbVertex
100
AcDb2dVertex
 10
0.7080886822858348
 20
3.248580643506203
 30
0.0
  0
VERTEX
  5
77
330
75
100
AcDbEntity
  8
Wood
 62
   250
420
  2301728
370
    25
100
AcDbVertex
100
AcDb2dVertex
 10
0.780095495281633
 20
3.246186220870628
 30
0.0
  0
VERTEX
  5
78
330
75
100
AcDbEntity
  8
Wood
 62
   250
420
  2301728
370
    25
100
AcDbVertex
100
AcDb2dVertex
 10
0.7239825436165069
 20
3.285099740089789
 30
0.0
  0
SEQEND
  5
79
330
75
100
AcDbEntity
  8
Wood
 62
   250
420
  2301728
370
    25
  0
SPLINE
  5
7A
330
1F
100
AcDbEntity
  8
Wood
 62
   250
420
  2301728
370
    25
100
AcDbSpline
210
0.0
220
0.0
230
1.0
 70
     8
 71
     3
 72
     8
 73
     4
 74
     0
 42
0.0000000001
 43
0.0000000001
 12
1.0
 22
0.0
 32
0.0
 13
1.0
 23
0.0
 33
0.0
 40
0.0
 40
0.0
 40
0.0
 40
0.0
 40
1.0
 40
1.0
 40
1.0
 40
1.0
 10
0.404821498828571
 20
2.969109782258127
 30
0.0
 10
0.404821498828571
 20
2.969109782258127
 30
0.0
 10
0.484612962102498
 20
2.953191986961972
 30
0.0
 10
0.6125452027604044
 20
2.927669382797212
 30
0.0
  0
SPLINE
  5
7B
330
1F
100
AcDbEntity
  8
Wood
 62
   250
420
  2301728
370
    15
100
AcDbSpline
210
0.0
220
0.0
230
1.0
 70
     8
 71
     3
 72
    17
 73
    13
 74
     0
 42
0.0000000001
 43
0.0000000001
 12
1.0
 22
0.0
 32
0.0
 13
1.0
 23
0.0
 33
0.0
 40
0.0
 40
0.0
 40
0.0
 40
0.0
 40
1.0
 40
1.0
 40
1.0
 40
2.0
 40
2.0
 40
2.0
 40
3.0
 40
3.0
 40
3.0
 40
4.0
 40
4.0
 40
4.0
 40
4.0
 10
0.5326719982544116
 20
2.795395243565344
 30
0.0
 10
0.5290801923509004
 20
2.781379026772571
 30
0.0
 10
0.5310179403818438
 20
2.772433170394202
 30
0.0
 10
0.5291739543524095
 20
2.755200195785177
 30
0.0
 10
0.5273179475535319
 20
2.737991262714394
 30
0.0
 10
0.5218965805439161
 20
2.705943892243075
 30
0.0
 10
0.5198290082032094
 20
2.695238195265675
 30
0.0
 10
0.51773979847754
 20
2.684532498288275
 30
0.0
 10
0.514441299347949
 20
2.638656534247906
 30
0.0
 10
0.509181010648591
 20
2.625390314222714
 30
0.0
 10
0.5039231261030939
 20
2.612124193422952
 30
0.0
 10
0.5031946674760976
 20
2.60963589421533
 30
0.0
 10
0.5023387886931989
 20
2.587568264201473
 30
0.0
  0
SPLINE
  5
7C
330
1F
100
AcDbEntity
  8
Wood
 62
   250
420
  2301728
370
    15
100
AcDbSpline
210
0.0
220
0.0
230
1.0
 70
     8
 71
     3
 72
    23
 73
    19
 74
     0
 42
0.0000000001
 43
0.0000000001
 12
1.0
 22
0.0
 32
0.0
 13
1.0
 23
0.0
 33
0.0
 40
0.0
 40
0.0
 40
0.0
 40
0.0
 40
1.0
 40
1.0
 40
1.0
 40
2.0
 40
2.0
 40
2.0
 40
3.0
 40
3.0
 40
3.0
 40
4.0
 40
4.0
 40
4.0
 40
5.0
 40
5.0
 40
5.0
 40
6.0
 40
6.0
 40
6.0
 40
6.0
 10
0.5048847876569071
 20
2.350626786161633
 30
0.0
 10
0.5099695731227156
 20
2.368797380761963
 30
0.0
 10
0.5140061474948602
 20
2.417140105851002
 30
0.0
 10
0.5160015952190203
 20
2.430288517074991
 30
0.0
 10
0.5179970429431806
 20
2.44343433622195
 30
0.0
 10
0.5267096966207419
 20
2.521381907760125
 30
0.0
 10
0.5271304235505517
 20
2.532840008621545
 30
0.0
 10
0.5273780514006603
 20
2.538708548105445
 30
0.0
 10
0.53858862096427
 20
2.60270952704895
 30
0.0
 10
0.5411346199279781
 20
2.623231384088929
 30
0.0
 10
0.543683023045585
 20
2.643750836975098
 30
0.0
 10
0.5466761946318254
 20
2.69861843554194
 30
0.0
 10
0.5511503250109702
 20
2.711038294195721
 30
0.0
 10
0.5556100304667855
 20
2.723434111311247
 30
0.0
 10
0.5615386739460619
 20
2.764521100160057
 30
0.0
 10
0.5615386739460619
 20
2.764521100160057
 30
0.0
 10
0.5615386739460619
 20
2.764521100160057
 30
0.0
 10
0.5655295693943824
 20
2.790817734684828
 30
0.0
 10
0.5655295693943824
 20
2.790817734684828
 30
0.0
  0
SPLINE
  5
7D
330
1F
100
AcDbEntity
  8
Wood
 62
   250
420
  2301728
370
    15
100
AcDbSpline
210
0.0
220
0.0
230
1.0
 70
     8
 71
     3
 72
    35
 73
    31
 74
     0
 42
0.0000000001
 43
0.0000000001
 12
1.0
 22
0.0
 32
0.0
 13
1.0
 23
0.0
 33
0.0
 40
0.0
 40
0.0
 40
0.0
 40
0.0
 40
1.0
 40
1.0
 40
1.0
 40
2.0
 40
2.0
 40
2.0
 40
3.0
 40
3.0
 40
3.0
 40
4.0
 40
4.0
 40
4.0
 40
5.0
 40
5.0
 40
5.0
 40
6.0
 40
6.0
 40
6.0
 40
7.0
 40
7.0
 40
7.0
 40
8.0
 40
8.0
 40
8.0
 40
9.0
 40
9.0
 40
9.0
 40
10.0
 40
10.0
 40
10.0
 40
10.0
 10
0.5985169648441417
 20
2.782153164303837
 30
0.0
 10
0.5974831786737695
 20
2.764968272771271
 30
0.0
 10
0.5916482971960022
 20
2.721438663637489
 30
0.0
 10
0.5904390077920804
 20
2.709136608521084
 30
0.0
 10
0.5892417391575893
 20
2.69683455340468
 30
0.0
 10
0.5828082233625638
 20
2.646756029254852
 30
0.0
 10
0.5800386380875705
 20
2.632761449846485
 30
0.0
 10
0.5772570320431719
 20
2.618769274591955
 30
0.0
 10
0.5673951928087919
 20
2.573479922438069
 30
0.0
 10
0.5676548414283186
 20
2.566132730773575
 30
0.0
 10
0.567900065124541
 20
2.558783232534211
 30
0.0
 10
0.5655536109332312
 20
2.532558722624155
 30
0.0
 10
0.561901701182617
 20
2.520160501354806
 30
0.0
 10
0.5582401748164708
 20
2.50776468423928
 30
0.0
 10
0.5546483689129723
 20
2.493748467446494
 30
0.0
 10
0.5544824822949295
 20
2.474967217774924
 30
0.0
 10
0.5543310206002035
 20
2.456137885026894
 30
0.0
 10
0.548039349884372
 20
2.425686872694617
 30
0.0
 10
0.5444114816726066
 20
2.412468834971353
 30
0.0
 10
0.5407836134608538
 20
2.399272434632469
 30
0.0
 10
0.5364272866220668
 20
2.383614180778042
 30
0.0
 10
0.536158021386983
 20
2.368071326307169
 30
0.0
 10
0.535876735382481
 20
2.352528471836245
 30
0.0
 10
0.5386006417336627
 20
2.321560566431849
 30
0.0
 10
0.531145360537721
 20
2.300875226931819
 30
0.0
 10
0.5236924834956653
 20
2.280168250047407
 30
0.0
 10
0.5200886568227361
 20
2.219571552918448
 30
0.0
 10
0.5179874263276361
 20
2.209688076548749
 30
0.0
 10
0.5158741750631431
 20
2.199802284164333
 30
0.0
 10
0.5049689330428843
 20
2.161018386539682
 30
0.0
 10
0.5054617845892027
 20
2.147141610668667
 30
0.0
  0
SPLINE
  5
7E
330
1F
100
AcDbEntity
  8
Wood
 62
   250
420
  2301728
370
    15
100
AcDbSpline
210
0.0
220
0.0
230
1.0
 70
     8
 71
     3
 72
    41
 73
    37
 74
     0
 42
0.0000000001
 43
0.0000000001
 12
1.0
 22
0.0
 32
0.0
 13
1.0
 23
0.0
 33
0.0
 40
0.0
 40
0.0
 40
0.0
 40
0.0
 40
1.0
 40
1.0
 40
1.0
 40
2.0
 40
2.0
 40
2.0
 40
3.0
 40
3.0
 40
3.0
 40
4.0
 40
4.0
 40
4.0
 40
5.0
 40
5.0
 40
5.0
 40
6.0
 40
6.0
 40
6.0
 40
7.0
 40
7.0
 40
7.0
 40
8.0
 40
8.0
 40
8.0
 40
9.0
 40
9.0
 40
9.0
 40
10.0
 40
10.0
 40
10.0
 40
11.0
 40
11.0
 40
11.0
 40
12.0
 40
12.0
 40
12.0
 40
12.0
 10
0.5119049169997727
 20
1.892359085409629
 30
0.0
 10
0.5118712588453793
 20
1.916893394809146
 30
0.0
 10
0.5141936714978403
 20
1.943940125326965
 30
0.0
 10
0.5168238158475383
 20
1.961992916389893
 30
0.0
 10
0.5194659809666543
 20
1.980096194683129
 30
0.0
 10
0.5207449908332111
 20
2.01362211975609
 30
0.0
 10
0.5241733142725656
 20
2.032545298417012
 30
0.0
 10
0.52760163771192
 20
2.051468309250393
 30
0.0
 10
0.5293734991248205
 20
2.094033852700856
 30
0.0
 10
0.5339053291971823
 20
2.104811674292958
 30
0.0
 10
0.5384347551156452
 20
2.115587091731261
 30
0.0
 10
0.5478734632663418
 20
2.173132917657818
 30
0.0
 10
0.550703152388438
 20
2.185480651696909
 30
0.0
 10
0.553544862279965
 20
2.197854919517845
 30
0.0
 10
0.5569828023348514
 20
2.239670278885417
 30
0.0
 10
0.56196180502972
 20
2.261081672840242
 30
0.0
 10
0.566926382801297
 20
2.282517108333245
 30
0.0
 10
0.5757664566347355
 20
2.357175701177665
 30
0.0
 10
0.5769757460386825
 20
2.369501797832325
 30
0.0
 10
0.5781730146731736
 20
2.381806257102552
 30
0.0
 10
0.5897225699344896
 20
2.425496944542525
 30
0.0
 10
0.5899701977845855
 20
2.441862019621162
 30
0.0
 10
0.5902178256347194
 20
2.4582270946998
 30
0.0
 10
0.5968605028176878
 20
2.525466468843938
 30
0.0
 10
0.5989040336195456
 20
2.536972749044669
 30
0.0
 10
0.6009571810369354
 20
2.548500763577736
 30
0.0
 10
0.6065468388184929
 20
2.575662796531143
 30
0.0
 10
0.6077200659141352
 20
2.588787072255286
 30
0.0
 10
0.6089053137792209
 20
2.601889710595022
 30
0.0
 10
0.6150912017241504
 20
2.658493108222665
 30
0.0
 10
0.61565617788699
 20
2.665890689538502
 30
0.0
 10
0.6162187498959812
 20
2.673261825162298
 30
0.0
 10
0.6231210756985016
 20
2.709465977594947
 30
0.0
 10
0.6242726654091812
 20
2.723410069773017
 30
0.0
 10
0.625421850966
 20
2.737332524566657
 30
0.0
 10
0.6289799987151178
 20
2.775885637977303
 30
0.0
 10
0.6289799987151178
 20
2.775885637977303
 30
0.0
  0
SPLINE
  5
7F
330
1F
100
AcDbEntity
  8
Wood
 62
   250
420
  2301728
370
    15
100
AcDbSpline
210
0.0
220
0.0
230
1.0
 70
     8
 71
     3
 72
    65
 73
    61
 74
     0
 42
0.0000000001
 43
0.0000000001
 12
1.0
 22
0.0
 32
0.0
 13
1.0
 23
0.0
 33
0.0
 40
0.0
 40
0.0
 40
0.0
 40
0.0
 40
1.0
 40
1.0
 40
1.0
 40
2.0
 40
2.0
 40
2.0
 40
3.0
 40
3.0
 40
3.0
 40
4.0
 40
4.0
 40
4.0
 40
5.0
 40
5.0
 40
5.0
 40
6.0
 40
6.0
 40
6.0
 40
7.0
 40
7.0
 40
7.0
 40
8.0
 40
8.0
 40
8.0
 40
9.0
 40
9.0
 40
9.0
 40
10.0
 40
10.0
 40
10.0
 40
11.0
 40
11.0
 40
11.0
 40
12.0
 40
12.0
 40
12.0
 40
13.0
 40
13.0
 40
13.0
 40
14.0
 40
14.0
 40
14.0
 40
15.0
 40
15.0
 40
15.0
 40
16.0
 40
16.0
 40
16.0
 40
17.0
 40
17.0
 40
17.0
 40
18.0
 40
18.0
 40
18.0
 40
19.0
 40
19.0
 40
19.0
 40
20.0
 40
20.0
 40
20.0
 40
20.0
 10
0.6694082504375021
 20
2.765013951693934
 30
0.0
 10
0.663609431267989
 20
2.743554474662662
 30
0.0
 10
0.65324271971786
 20
2.712964021408589
 30
0.0
 10
0.6544520091217817
 20
2.701575544745222
 30
0.0
 10
0.6556733192951216
 20
2.690165430697448
 30
0.0
 10
0.656235891304113
 20
2.673824397157053
 30
0.0
 10
0.6508962655265501
 20
2.663024938180532
 30
0.0
 10
0.6455542355951264
 20
2.652201437665768
 30
0.0
 10
0.6377359271626043
 20
2.642154478836094
 30
0.0
 10
0.6383345614798372
 20
2.624991224687947
 30
0.0
 10
0.6389331957970954
 20
2.607852012078044
 30
0.0
 10
0.6380172131670936
 20
2.563690110488589
 30
0.0
 10
0.6358582829787893
 20
2.555424726765207
 30
0.0
 10
0.633696948636561
 20
2.547185594488193
 30
0.0
 10
0.6278524505432617
 20
2.527368250932618
 30
0.0
 10
0.6298839605756889
 20
2.516006123547274
 30
0.0
 10
0.6319130664542424
 20
2.50462005103773
 30
0.0
 10
0.6310211253630894
 20
2.483348193306736
 30
0.0
 10
0.6255035921980657
 20
2.477431475444367
 30
0.0
 10
0.6199980798024853
 20
2.471514852883956
 30
0.0
 10
0.6138602749352408
 20
2.459847494377047
 30
0.0
 10
0.6158653392749581
 20
2.449305374301679
 30
0.0
 10
0.6178728077685365
 20
2.4387630653423
 30
0.0
 10
0.6172741734513035
 20
2.432190108787987
 30
0.0
 10
0.611910506134892
 20
2.422186518484118
 30
0.0
 10
0.6065348180490623
 20
2.41218523832443
 30
0.0
 10
0.6053255286451404
 20
2.39988308970371
 30
0.0
 10
0.6041859597038662
 20
2.385984676448313
 30
0.0
 10
0.6030367741470728
 20
2.372038180116407
 30
0.0
 10
0.5972956546707893
 20
2.348958303407926
 30
0.0
 10
0.5994545848590935
 20
2.334309794159455
 30
0.0
 10
0.6015918776624478
 20
2.319682922295467
 30
0.0
 10
0.603916694468795
 20
2.300149172477025
 30
0.0
 10
0.6002527639487627
 20
2.287753355361524
 30
0.0
 10
0.5966032583520473
 20
2.275355134092175
 30
0.0
 10
0.5920137285864434
 20
2.2662217537155
 30
0.0
 10
0.5916843595042817
 20
2.252299298921874
 30
0.0
 10
0.5913549904220822
 20
2.238400885666477
 30
0.0
 10
0.5879266669827277
 20
2.219477790919326
 30
0.0
 10
0.5852989267869538
 20
2.201400958318118
 30
0.0
 10
0.5826567616678378
 20
2.183345763101341
 30
0.0
 10
0.5777378628200722
 20
2.16028992793109
 30
0.0
 10
0.5789014733001825
 20
2.150521850944945
 30
0.0
 10
0.5800506588569886
 20
2.140756264760057
 30
0.0
 10
0.5763771117214244
 20
2.129180177451063
 30
0.0
 10
0.57505001877717
 20
2.120142963227358
 30
0.0
 10
0.5737349466023084
 20
2.111103344849855
 30
0.0
 10
0.571763540416997
 20
2.097132806979769
 30
0.0
 10
0.5683111754387937
 20
2.079031932840331
 30
0.0
 10
0.5648612146144766
 20
2.060955100239122
 30
0.0
 10
0.559108074368775
 20
2.014982870820353
 30
0.0
 10
0.5577689606550899
 20
2.006767877204412
 30
0.0
 10
0.5564202303258727
 20
1.998550562489678
 30
0.0
 10
0.548048966499904
 20
1.957369728586754
 30
0.0
 10
0.542848781647649
 20
1.942483208109732
 30
0.0
 10
0.5376485967954068
 20
1.927599091786558
 30
0.0
 10
0.5314627088504899
 20
1.893861601177125
 30
0.0
 10
0.5294191780486319
 20
1.882355320976381
 30
0.0
 10
0.5273660306312422
 20
1.870829807545104
 30
0.0
 10
0.5212739046878091
 20
1.834671334035091
 30
0.0
 10
0.52076903237206
 20
1.825655757195818
 30
0.0
  0
SPLINE
  5
80
330
1F
100
AcDbEntity
  8
Wood
 62
   250
420
  2301728
370
    15
100
AcDbSpline
210
0.0
220
0.0
230
1.0
 70
     8
 71
     3
 72
    44
 73
    40
 74
     0
 42
0.0000000001
 43
0.0000000001
 12
1.0
 22
0.0
 32
0.0
 13
1.0
 23
0.0
 33
0.0
 40
0.0
 40
0.0
 40
0.0
 40
0.0
 40
1.0
 40
1.0
 40
1.0
 40
2.0
 40
2.0
 40
2.0
 40
3.0
 40
3.0
 40
3.0
 40
4.0
 40
4.0
 40
4.0
 40
5.0
 40
5.0
 40
5.0
 40
6.0
 40
6.0
 40
6.0
 40
7.0
 40
7.0
 40
7.0
 40
8.0
 40
8.0
 40
8.0
 40
9.0
 40
9.0
 40
9.0
 40
10.0
 40
10.0
 40
10.0
 40
11.0
 40
11.0
 40
11.0
 40
12.0
 40
12.0
 40
12.0
 40
13.0
 40
13.0
 40
13.0
 40
13.0
 10
0.5612790253265353
 20
1.812343957473432
 30
0.0
 10
0.5624306150372149
 20
1.826290453805288
 30
0.0
 10
0.5643082592210299
 20
1.842701207806587
 30
0.0
 10
0.56557765247208
 20
1.853385267399567
 30
0.0
 10
0.5668326207998132
 20
1.864042881300469
 30
0.0
 10
0.5613150876347895
 20
1.881840832058111
 30
0.0
 10
0.5651064383107243
 20
1.890151991827022
 30
0.0
 10
0.5688977889866338
 20
1.898439110057653
 30
0.0
 10
0.5767160974191559
 20
1.932224683743546
 30
0.0
 10
0.5767160974191559
 20
1.932224683743546
 30
0.0
 10
0.5767160974191559
 20
1.932224683743546
 30
0.0
 10
0.5834188784492274
 20
1.97413148904631
 30
0.0
 10
0.5878112675962812
 20
1.989018009523281
 30
0.0
 10
0.5921892318200181
 20
2.003856446923793
 30
0.0
 10
0.5960503029586005
 20
2.057127687351668
 30
0.0
 10
0.5990915576225385
 20
2.063770364366822
 30
0.0
 10
0.6021207915170458
 20
2.070415445535824
 30
0.0
 10
0.6045273495554839
 20
2.118734215177736
 30
0.0
 10
0.6057823178832172
 20
2.129391742987536
 30
0.0
 10
0.6070493069803685
 20
2.140075802580516
 30
0.0
 10
0.6122975749103085
 20
2.177030051006214
 30
0.0
 10
0.617697304534987
 20
2.186185068767271
 30
0.0
 10
0.6230970341596528
 20
2.195390573758636
 30
0.0
 10
0.6247174338778273
 20
2.219126784461019
 30
0.0
 10
0.6252223061935763
 20
2.228142361300292
 30
0.0
 10
0.6257271785093381
 20
2.237157938139565
 30
0.0
 10
0.6288958533291659
 20
2.263406489587851
 30
0.0
 10
0.631901045684837
 20
2.270895428748998
 30
0.0
 10
0.634906238040508
 20
2.278336284833686
 30
0.0
 10
0.6465279179183451
 20
2.367013498624651
 30
0.0
 10
0.6465279179183451
 20
2.367013498624651
 30
0.0
 10
0.6465279179183451
 20
2.367013498624651
 30
0.0
 10
0.6558151643743156
 20
2.428619940359668
 30
0.0
 10
0.6536201718777318
 20
2.444915294977414
 30
0.0
 10
0.6514131586117425
 20
2.461160162364851
 30
0.0
 10
0.6580918981029905
 20
2.503915633967381
 30
0.0
 10
0.6622246386304924
 20
2.526101165453421
 30
0.0
 10
0.6663453583885889
 20
2.548334780015959
 30
0.0
 10
0.6838932775918415
 20
2.607734208540692
 30
0.0
 10
0.6817463681729552
 20
2.669011281201796
 30
0.0
  0
SPLINE
  5
81
330
1F
100
AcDbEntity
  8
Wood
 62
   250
420
  2301728
370
    15
100
AcDbSpline
210
0.0
220
0.0
230
1.0
 70
     8
 71
     3
 72
    50
 73
    46
 74
     0
 42
0.0000000001
 43
0.0000000001
 12
1.0
 22
0.0
 32
0.0
 13
1.0
 23
0.0
 33
0.0
 40
0.0
 40
0.0
 40
0.0
 40
0.0
 40
1.0
 40
1.0
 40
1.0
 40
2.0
 40
2.0
 40
2.0
 40
3.0
 40
3.0
 40
3.0
 40
4.0
 40
4.0
 40
4.0
 40
5.0
 40
5.0
 40
5.0
 40
6.0
 40
6.0
 40
6.0
 40
7.0
 40
7.0
 40
7.0
 40
8.0
 40
8.0
 40
8.0
 40
9.0
 40
9.0
 40
9.0
 40
10.0
 40
10.0
 40
10.0
 40
11.0
 40
11.0
 40
11.0
 40
12.0
 40
12.0
 40
12.0
 40
13.0
 40
13.0
 40
13.0
 40
14.0
 40
14.0
 40
14.0
 40
15.0
 40
15.0
 40
15.0
 40
15.0
 10
0.5835607235284088
 20
1.806617263065113
 30
0.0
 10
0.5822576721230032
 20
1.820445955859618
 30
0.0
 10
0.5862485675713363
 20
1.823049654450794
 30
0.0
 10
0.5882680568343454
 20
1.835375751105453
 30
0.0
 10
0.5902875460973543
 20
1.847701847760113
 30
0.0
 10
0.5889844946919488
 20
1.861530540554617
 30
0.0
 10
0.5903692873294454
 20
1.868949759254873
 30
0.0
 10
0.5917420591975112
 20
1.876344936416899
 30
0.0
 10
0.5935980659963762
 20
1.893577911025911
 30
0.0
 10
0.597471157904364
 20
1.89942481312543
 30
0.0
 10
0.60135627058177
 20
1.905293433308442
 30
0.0
 10
0.607061327749774
 20
1.929195449925575
 30
0.0
 10
0.6093044033240554
 20
1.934994268948584
 30
0.0
 10
0.6115570955138815
 20
1.940793087971593
 30
0.0
 10
0.61565617788699
 20
1.963824881603664
 30
0.0
 10
0.6154566331145916
 20
1.969529938627551
 30
0.0
 10
0.6152570883421681
 20
1.975259037189668
 30
0.0
 10
0.6185555874717465
 20
2.021135100455467
 30
0.0
 10
0.6224166586103289
 20
2.027804223162699
 30
0.0
 10
0.6262681131333667
 20
2.034494983254363
 30
0.0
 10
0.6299657018077798
 20
2.068936890934158
 30
0.0
 10
0.6313384736758457
 20
2.076356109634415
 30
0.0
 10
0.6327232663133423
 20
2.08375128679644
 30
0.0
 10
0.6339085141784153
 20
2.119743959809208
 30
0.0
 10
0.636187652060951
 20
2.124744599889052
 30
0.0
 10
0.6384643857896005
 20
2.129697156891224
 30
0.0
 10
0.6440275978784358
 20
2.157707866724296
 30
0.0
 10
0.6445108328092222
 20
2.167521622633052
 30
0.0
 10
0.644979642816717
 20
2.177359420080089
 30
0.0
 10
0.648371903947792
 20
2.197080693896724
 30
0.0
 10
0.6490186213427351
 20
2.20200920923556
 30
0.0
 10
0.6496629345837795
 20
2.206916087189913
 30
0.0
 10
0.6495932141211445
 20
2.232251060185162
 30
0.0
 10
0.6509780067586411
 20
2.239670278885417
 30
0.0
 10
0.652350778626707
 20
2.247087093431876
 30
0.0
 10
0.6555795572936378
 20
2.271717649356762
 30
0.0
 10
0.6577048293275867
 20
2.280754863580417
 30
0.0
 10
0.6598397179770422
 20
2.28984256503438
 30
0.0
 10
0.6546395331247873
 20
2.29864657633718
 30
0.0
 10
0.6592771459680509
 20
2.306159557036557
 30
0.0
 10
0.6639147588113271
 20
2.313696579274165
 30
0.0
 10
0.6709348881541928
 20
2.370299976901808
 30
0.0
 10
0.6730697768036482
 20
2.379387678355771
 30
0.0
 10
0.6751950488375971
 20
2.388448934117706
 30
0.0
 10
0.6836600746650497
 20
2.427165427296232
 30
0.0
 10
0.6850905462263325
 20
2.432916163242781
 30
0.0
  0
SPLINE
  5
82
330
1F
100
AcDbEntity
  8
Wood
 62
   250
420
  2301728
370
    15
100
AcDbSpline
210
0.0
220
0.0
230
1.0
 70
     8
 71
     3
 72
    29
 73
    25
 74
     0
 42
0.0000000001
 43
0.0000000001
 12
1.0
 22
0.0
 32
0.0
 13
1.0
 23
0.0
 33
0.0
 40
0.0
 40
0.0
 40
0.0
 40
0.0
 40
1.0
 40
1.0
 40
1.0
 40
2.0
 40
2.0
 40
2.0
 40
3.0
 40
3.0
 40
3.0
 40
4.0
 40
4.0
 40
4.0
 40
5.0
 40
5.0
 40
5.0
 40
6.0
 40
6.0
 40
6.0
 40
7.0
 40
7.0
 40
7.0
 40
8.0
 40
8.0
 40
8.0
 40
8.0
 10
0.6091745790142921
 20
1.798515264678877
 30
0.0
 10
0.6151392848018228
 20
1.815043822217528
 30
0.0
 10
0.622628224152158
 20
1.857820931204464
 30
0.0
 10
0.6247414754166761
 20
1.867706811727961
 30
0.0
 10
0.6268427059117635
 20
1.877566246559379
 30
0.0
 10
0.636831965302008
 20
1.942483208109732
 30
0.0
 10
0.6381830997851112
 20
1.950700605879522
 30
0.0
 10
0.6395318301143535
 20
1.958942045187491
 30
0.0
 10
0.6487950350314754
 20
2.021370707530221
 30
0.0
 10
0.6517401235400307
 20
2.030480046368615
 30
0.0
 10
0.6546876162024848
 20
2.039565427759903
 30
0.0
 10
0.6622823383237346
 20
2.056163621668323
 30
0.0
 10
0.6596065150502505
 20
2.062621263512584
 30
0.0
 10
0.656930691776741
 20
2.069076331855942
 30
0.0
 10
0.6625516035587932
 20
2.095421049457198
 30
0.0
 10
0.6629410764880959
 20
2.107675107308852
 30
0.0
 10
0.6633281452634997
 20
2.119955439229114
 30
0.0
 10
0.6713676358534081
 20
2.147211331129559
 30
0.0
 10
0.6711103913877423
 20
2.154560829368974
 30
0.0
 10
0.6708531469221017
 20
2.161910327608338
 30
0.0
 10
0.6718604873997265
 20
2.179917439748604
 30
0.0
 10
0.6723317015610948
 20
2.189755237195641
 30
0.0
 10
0.6728125323380078
 20
2.199568993104397
 30
0.0
 10
0.6798326616808733
 20
2.232508304644297
 30
0.0
 10
0.6853501948458718
 20
2.238424927204707
 30
0.0
  0
SPLINE
  5
83
330
1F
100
AcDbEntity
  8
Wood
 62
   250
420
  2301728
370
    15
100
AcDbSpline
210
0.0
220
0.0
230
1.0
 70
     8
 71
     3
 72
    17
 73
    13
 74
     0
 42
0.0000000001
 43
0.0000000001
 12
1.0
 22
0.0
 32
0.0
 13
1.0
 23
0.0
 33
0.0
 40
0.0
 40
0.0
 40
0.0
 40
0.0
 40
1.0
 40
1.0
 40
1.0
 40
2.0
 40
2.0
 40
2.0
 40
3.0
 40
3.0
 40
3.0
 40
4.0
 40
4.0
 40
4.0
 40
4.0
 10
0.6429841950925442
 20
1.789877139989938
 30
0.0
 10
0.6487469519537777
 20
1.812132470282601
 30
0.0
 10
0.6573874810148178
 20
1.868831955717521
 30
0.0
 10
0.6601113873659995
 20
1.884468572187517
 30
0.0
 10
0.6628352937171813
 20
1.90008355127313
 30
0.0
 10
0.6639965000434181
 20
1.936919996161476
 30
0.0
 10
0.6694899916695678
 20
1.94363479779132
 30
0.0
 10
0.674971462526312
 20
1.950371318643546
 30
0.0
 10
0.6788469585881987
 20
1.979930308069318
 30
0.0
 10
0.6777674934940529
 20
1.98723412738602
 30
0.0
 10
0.6766976450154263
 20
1.994557179933306
 30
0.0
 10
0.6838235571291812
 20
2.047946223898533
 30
0.0
 10
0.6877327113454486
 20
2.052970905390288
 30
0.0
  0
SPLINE
  5
84
330
1F
100
AcDbEntity
  8
Wood
 62
   250
420
  2301728
370
    15
100
AcDbSpline
210
0.0
220
0.0
230
1.0
 70
     8
 71
     3
 72
     8
 73
     4
 74
     0
 42
0.0000000001
 43
0.0000000001
 12
1.0
 22
0.0
 32
0.0
 13
1.0
 23
0.0
 33
0.0
 40
0.0
 40
0.0
 40
0.0
 40
0.0
 40
1.0
 40
1.0
 40
1.0
 40
1.0
 10
0.671074329079488
 20
1.781049087148959
 30
0.0
 10
0.6731875803439935
 20
1.790932563518608
 30
0.0
 10
0.683155202349288
 20
1.83295957651252
 30
0.0
 10
0.6877086698065997
 20
1.842912773343061
 30
0.0
  0
POLYLINE
  5
85
330
1F
100
AcDbEntity
  8
Wood
 62
   250
420
  2301728
370
    25
100
AcDb2dPolyline
 66
     1
 10
0.0
 20
0.0
 30
0.0
  0
VERTEX
  5
86
330
85
100
AcDbEntity
  8
Wood
 62
   250
420
  2301728
370
    25
100
AcDbVertex
100
AcDb2dVertex
 10
0.6863358979385339
 20
2.767831722464128
 30
0.0
  0
VERTEX
  5
87
330
85
100
AcDbEntity
  8
Wood
 62
   250
420
  2301728
370
    25
100
AcDbVertex
100
AcDb2dVertex
 10
2.699603107910207
 20
4.911202070203672
 30
0.0
  0
SEQEND
  5
88
330
85
100
AcDbEntity
  8
Wood
 62
   250
420
  2301728
370
    25
  0
POLYLINE
  5
89
330
1F
100
AcDbEntity
  8
Wood
 62
   250
420
  2301728
370
    25
100
AcDb2dPolyline
 66
     1
 10
0.0
 20
0.0
 30
0.0
  0
VERTEX
  5
8A
330
89
100
AcDbEntity
  8
Wood
 62
   250
420
  2301728
370
    25
100
AcDbVertex
100
AcDb2dVertex
 10
0.6899637661502867
 20
1.778442984403935
 30
0.0
  0
VERTEX
  5
8B
330
89
100
AcDbEntity
  8
Wood
 62
   250
420
  2301728
370
    25
100
AcDbVertex
100
AcDb2dVertex
 10
0.6849150429927577
 20
2.765578927842537
 30
0.0
  0
VERTEX
  5
8C
330
89
100
AcDbEntity
  8
Wood
 62
   250
420
  2301728
370
    25
100
AcDbVertex
100
AcDb2dVertex
 10
0.4996148823420172
 20
2.805677809469759
 30
0.0
  0
SEQEND
  5
8D
330
89
100
AcDbEntity
  8
Wood
 62
   250
420
  2301728
370
    25
  0
SPLINE
  5
8E
330
1F
100
AcDbEntity
  8
Wood
 62
   250
420
  2301728
370
    15
100
AcDbSpline
210
0.0
220
0.0
230
1.0
 70
     8
 71
     3
 72
     8
 73
     4
 74
     0
 42
0.0000000001
 43
0.0000000001
 12
1.0
 22
0.0
 32
0.0
 13
1.0
 23
0.0
 33
0.0
 40
0.0
 40
0.0
 40
0.0
 40
0.0
 40
1.0
 40
1.0
 40
1.0
 40
1.0
 10
2.917503589730662
 20
4.592711792395258
 30
0.0
 10
2.924475635819691
 20
4.603580971832671
 30
0.0
 10
2.929406555312324
 20
4.602936658607897
 30
0.0
 10
2.92088383000694
 20
4.613267307588772
 30
0.0
  0
SPLINE
  5
8F
330
1F
100
AcDbEntity
  8
Wood
 62
   250
420
  2301728
370
    15
100
AcDbSpline
210
0.0
220
0.0
230
1.0
 70
     8
 71
     3
 72
     8
 73
     4
 74
     0
 42
0.0000000001
 43
0.0000000001
 12
1.0
 22
0.0
 32
0.0
 13
1.0
 23
0.0
 33
0.0
 40
0.0
 40
0.0
 40
0.0
 40
0.0
 40
1.0
 40
1.0
 40
1.0
 40
1.0
 10
2.890995389669393
 20
4.579527412825516
 30
0.0
 10
2.891466603818874
 20
4.5893531895034
 30
0.0
 10
2.892404223810142
 20
4.608992722090053
 30
0.0
 10
2.899590239589492
 20
4.614159248657402
 30
0.0
  0
SPLINE
  5
90
330
1F
100
AcDbEntity
  8
Wood
 62
   250
420
  2301728
370
    15
100
AcDbSpline
210
0.0
220
0.0
230
1.0
 70
     8
 71
     3
 72
    11
 73
     7
 74
     0
 42
0.0000000001
 43
0.0000000001
 12
1.0
 22
0.0
 32
0.0
 13
1.0
 23
0.0
 33
0.0
 40
0.0
 40
0.0
 40
0.0
 40
0.0
 40
1.0
 40
1.0
 40
1.0
 40
2.0
 40
2.0
 40
2.0
 40
2.0
 10
2.860921829487451
 20
4.57438733195022
 30
0.0
 10
2.863854897152477
 20
4.584294849858111
 30
0.0
 10
2.86850453064772
 20
4.591819851326641
 30
0.0
 10
2.870759626934437
 20
4.596796449741898
 30
0.0
 10
2.873036360605586
 20
4.60178506892627
 30
0.0
 10
2.877755714561721
 20
4.607665629179311
 30
0.0
 10
2.875829987348854
 20
4.61577724418084
 30
0.0
  0
POLYLINE
  5
91
330
1F
100
AcDbEntity
  8
Wood
 62
   250
420
  2301728
370
    25
100
AcDb2dPolyline
 66
     1
 10
0.0
 20
0.0
 30
0.0
  0
VERTEX
  5
92
330
91
100
AcDbEntity
  8
Wood
 62
   250
420
  2301728
370
    25
100
AcDbVertex
100
AcDb2dVertex
 10
2.856976613062569
 20
4.617563679688765
 30
0.0
  0
VERTEX
  5
93
330
91
100
AcDbEntity
  8
Wood
 62
   250
420
  2301728
370
    25
100
AcDbVertex
100
AcDb2dVertex
 10
2.861320919022192
 20
4.562965344970899
 30
0.0
  0
VERTEX
  5
94
330
91
100
AcDbEntity
  8
Wood
 62
   250
420
  2301728
370
    25
100
AcDbVertex
100
AcDb2dVertex
 10
2.964201873604225
 20
4.613137483282293
 30
0.0
  0
SEQEND
  5
95
330
91
100
AcDbEntity
  8
Wood
 62
   250
420
  2301728
370
    25
  0
SPLINE
  5
96
330
1F
100
AcDbEntity
  8
Wood
 62
   250
420
  2301728
370
    35
100
AcDbSpline
210
0.0
220
0.0
230
1.0
 70
     8
 71
     3
 72
    23
 73
    19
 74
     0
 42
0.0000000001
 43
0.0000000001
 12
1.0
 22
0.0
 32
0.0
 13
1.0
 23
0.0
 33
0.0
 40
0.0
 40
0.0
 40
0.0
 40
0.0
 40
1.0
 40
1.0
 40
1.0
 40
2.0
 40
2.0
 40
2.0
 40
3.0
 40
3.0
 40
3.0
 40
4.0
 40
4.0
 40
4.0
 40
5.0
 40
5.0
 40
5.0
 40
6.0
 40
6.0
 40
6.0
 40
6.0
 10
1.587893604640259
 20
2.733764861920235
 30
0.0
 10
2.007468859421477
 20
2.650136269531104
 30
0.0
 10
2.446815949952502
 20
2.560660876670631
 30
0.0
 10
2.446815949952502
 20
2.560660876670631
 30
0.0
 10
2.446815949952502
 20
2.560660876670631
 30
0.0
 10
2.675491849211261
 20
2.612782931570678
 30
0.0
 10
2.675491849211261
 20
2.612782931570678
 30
0.0
 10
2.675491849211261
 20
2.612782931570678
 30
0.0
 10
2.81002119030629
 20
2.574982420999011
 30
0.0
 10
2.81002119030629
 20
2.574982420999011
 30
0.0
 10
2.81002119030629
 20
2.574982420999011
 30
0.0
 10
2.810160525651655
 20
2.664904986470749
 30
0.0
 10
2.810160525651655
 20
2.664904986470749
 30
0.0
 10
2.810160525651655
 20
2.664904986470749
 30
0.0
 10
2.866110100432529
 20
2.653776158420341
 30
0.0
 10
2.866110100432529
 20
2.653776158420341
 30
0.0
 10
2.866110100432529
 20
2.653776158420341
 30
0.0
 10
2.987702477231904
 20
2.682534646460693
 30
0.0
 10
2.987702477231904
 20
2.682534646460693
 30
0.0
  0
POLYLINE
  5
97
330
1F
100
AcDbEntity
  8
Wood
 62
   250
420
  2301728
370
    35
100
AcDb2dPolyline
 66
     1
 10
0.0
 20
0.0
 30
0.0
  0
VERTEX
  5
98
330
97
100
AcDbEntity
  8
Wood
 62
   250
420
  2301728
370
    35
100
AcDbVertex
100
AcDb2dVertex
 10
1.817942201029533
 20
2.945700536475745
 30
0.0
  0
VERTEX
  5
99
330
97
100
AcDbEntity
  8
Wood
 62
   250
420
  2301728
370
    35
100
AcDbVertex
100
AcDb2dVertex
 10
2.443012578603252
 20
2.83349867751882
 30
0.0
  0
VERTEX
  5
9A
330
97
100
AcDbEntity
  8
Wood
 62
   250
420
  2301728
370
    35
100
AcDbVertex
100
AcDb2dVertex
 10
2.675773237393666
 20
2.87801409499251
 30
0.0
  0
VERTEX
  5
9B
330
97
100
AcDbEntity
  8
Wood
 62
   250
420
  2301728
370
    35
100
AcDbVertex
100
AcDb2dVertex
 10
2.812016638030425
 20
2.86399787784564
 30
0.0
  0
VERTEX
  5
9C
330
97
100
AcDbEntity
  8
Wood
 62
   250
420
  2301728
370
    35
100
AcDbVertex
100
AcDb2dVertex
 10
2.78165928207045
 20
2.918889413032679
 30
0.0
  0
VERTEX
  5
9D
330
97
100
AcDbEntity
  8
Wood
 62
   250
420
  2301728
370
    35
100
AcDbVertex
100
AcDb2dVertex
 10
2.865052272723334
 20
2.918538406574422
 30
0.0
  0
VERTEX
  5
9E
330
97
100
AcDbEntity
  8
Wood
 62
   250
420
  2301728
370
    35
100
AcDbVertex
100
AcDb2dVertex
 10
2.983430295887021
 20
2.945561095553962
 30
0.0
  0
SEQEND
  5
9F
330
97
100
AcDbEntity
  8
Wood
 62
   250
420
  2301728
370
    35
  0
POLYLINE
  5
A0
330
1F
100
AcDbEntity
  8
Wood
 62
   250
420
  2301728
370
    35
100
AcDb2dPolyline
 66
     1
 10
0.0
 20
0.0
 30
0.0
  0
VERTEX
  5
A1
330
A0
100
AcDbEntity
  8
Wood
 62
   250
420
  2301728
370
    35
100
AcDbVertex
100
AcDb2dVertex
 10
2.443012578603252
 20
2.83349867751882
 30
0.0
  0
VERTEX
  5
A2
330
A0
100
AcDbEntity
  8
Wood
 62
   250
420
  2301728
370
    35
100
AcDbVertex
100
AcDb2dVertex
 10
2.446205294881262
 20
2.274580996560871
 30
0.0
  0
SEQEND
  5
A3
330
A0
100
AcDbEntity
  8
Wood
 62
   250
420
  2301728
370
    35
  0
POLYLINE
  5
A4
330
1F
100
AcDbEntity
  8
Wood
 62
   250
420
  2301728
370
    35
100
AcDb2dPolyline
 66
     1
 10
0.0
 20
0.0
 30
0.0
  0
VERTEX
  5
A5
330
A4
100
AcDbEntity
  8
Wood
 62
   250
420
  2301728
370
    35
100
AcDbVertex
100
AcDb2dVertex
 10
2.676030379667812
 20
2.870008262556982
 30
0.0
  0
VERTEX
  5
A6
330
A4
100
AcDbEntity
  8
Wood
 62
   250
420
  2301728
370
    35
100
AcDbVertex
100
AcDb2dVertex
 10
2.677886386419787
 20
2.33334572847611
 30
0.0
  0
SEQEND
  5
A7
330
A4
100
AcDbEntity
  8
Wood
 62
   250
420
  2301728
370
    35
  0
POLYLINE
  5
A8
330
1F
100
AcDbEntity
  8
Wood
 62
   250
420
  2301728
370
    35
100
AcDb2dPolyline
 66
     1
 10
0.0
 20
0.0
 30
0.0
  0
VERTEX
  5
A9
330
A8
100
AcDbEntity
  8
Wood
 62
   250
420
  2301728
370
    35
100
AcDbVertex
100
AcDb2dVertex
 10
2.865052272723334
 20
2.918538406574422
 30
0.0
  0
VERTEX
  5
AA
330
A8
100
AcDbEntity
  8
Wood
 62
   250
420
  2301728
370
    35
100
AcDbVertex
100
AcDb2dVertex
 10
2.869278668178973
 20
2.376005033925695
 30
0.0
  0
SEQEND
  5
AB
330
A8
100
AcDbEntity
  8
Wood
 62
   250
420
  2301728
370
    35
  0
POLYLINE
  5
AC
330
1F
100
AcDbEntity
  8
Wood
 62
   250
420
  2301728
370
    35
100
AcDb2dPolyline
 66
     1
 10
0.0
 20
0.0
 30
0.0
  0
VERTEX
  5
AD
330
AC
100
AcDbEntity
  8
Wood
 62
   250
420
  2301728
370
    35
100
AcDbVertex
100
AcDb2dVertex
 10
2.808941619662972
 20
2.86399787784564
 30
0.0
  0
VERTEX
  5
AE
330
AC
100
AcDbEntity
  8
Wood
 62
   250
420
  2301728
370
    35
100
AcDbVertex
100
AcDb2dVertex
 10
2.812720949473992
 20
2.310268255921427
 30
0.0
  0
SEQEND
  5
AF
330
AC
100
AcDbEntity
  8
Wood
 62
   250
420
  2301728
370
    35
  0
SPLINE
  5
B0
330
1F
100
AcDbEntity
  8
Wood
 62
   250
420
  2301728
370
    15
100
AcDbSpline
210
0.0
220
0.0
230
1.0
 70
     8
 71
     3
 72
    11
 73
     7
 74
     0
 42
0.0000000001
 43
0.0000000001
 12
1.0
 22
0.0
 32
0.0
 13
1.0
 23
0.0
 33
0.0
 40
0.0
 40
0.0
 40
0.0
 40
0.0
 40
1.0
 40
1.0
 40
1.0
 40
2.0
 40
2.0
 40
2.0
 40
2.0
 10
2.444231484591935
 20
2.774709904065339
 30
0.0
 10
2.461887590273944
 20
2.78431209443761
 30
0.0
 10
2.488910279253484
 20
2.806500030077498
 30
0.0
 10
2.499334690233506
 20
2.811757914490158
 30
0.0
 10
2.509783142751758
 20
2.817042244594884
 30
0.0
 10
2.588764404171368
 20
2.858643722361977
 30
0.0
 10
2.601653173133349
 20
2.86399787784564
 30
0.0
  0
SPLINE
  5
B1
330
1F
100
AcDbEntity
  8
Wood
 62
   250
420
  2301728
370
    15
100
AcDbSpline
210
0.0
220
0.0
230
1.0
 70
     8
 71
     3
 72
    17
 73
    13
 74
     0
 42
0.0000000001
 43
0.0000000001
 12
1.0
 22
0.0
 32
0.0
 13
1.0
 23
0.0
 33
0.0
 40
0.0
 40
0.0
 40
0.0
 40
0.0
 40
1.0
 40
1.0
 40
1.0
 40
2.0
 40
2.0
 40
2.0
 40
3.0
 40
3.0
 40
3.0
 40
4.0
 40
4.0
 40
4.0
 40
4.0
 10
2.444536812127555
 20
2.719137888428109
 30
0.0
 10
2.460644642747032
 20
2.726227738054515
 30
0.0
 10
2.479613416416846
 20
2.744869546804289
 30
0.0
 10
2.487597611265705
 20
2.750057710756058
 30
0.0
 10
2.495603443498971
 20
2.755248278861649
 30
0.0
 10
2.51642822392076
 20
2.767408488902447
 30
0.0
 10
2.529386613031066
 20
2.770319919183079
 30
0.0
 10
2.542371447833425
 20
2.773231349463698
 30
0.0
 10
2.565472961926364
 20
2.790394603611831
 30
0.0
 10
2.575099193836877
 20
2.795630850640085
 30
0.0
 10
2.584725425747365
 20
2.800864796837686
 30
0.0
 10
2.670209923260371
 20
2.829649627246908
 30
0.0
 10
2.675773237393666
 20
2.833945954288917
 30
0.0
  0
SPLINE
  5
B2
330
1F
100
AcDbEntity
  8
Wood
 62
   250
420
  2301728
370
    15
100
AcDbSpline
210
0.0
220
0.0
230
1.0
 70
     8
 71
     3
 72
    29
 73
    25
 74
     0
 42
0.0000000001
 43
0.0000000001
 12
1.0
 22
0.0
 32
0.0
 13
1.0
 23
0.0
 33
0.0
 40
0.0
 40
0.0
 40
0.0
 40
0.0
 40
1.0
 40
1.0
 40
1.0
 40
2.0
 40
2.0
 40
2.0
 40
3.0
 40
3.0
 40
3.0
 40
4.0
 40
4.0
 40
4.0
 40
5.0
 40
5.0
 40
5.0
 40
6.0
 40
6.0
 40
6.0
 40
7.0
 40
7.0
 40
7.0
 40
8.0
 40
8.0
 40
8.0
 40
8.0
 10
2.444796460740513
 20
2.665207909852547
 30
0.0
 10
2.456043092328274
 20
2.671314460565011
 30
0.0
 10
2.471278215109729
 20
2.6792024892609
 30
0.0
 10
2.480012505951587
 20
2.686854910882074
 30
0.0
 10
2.48872275525524
 20
2.6945337781953
 30
0.0
 10
2.50285677558539
 20
2.711367663269584
 30
0.0
 10
2.515043431318241
 20
2.713432831404222
 30
0.0
 10
2.527227682897294
 20
2.715497999538873
 30
0.0
 10
2.560097273976326
 20
2.733812944997883
 30
0.0
 10
2.567304927140084
 20
2.738130703636165
 30
0.0
 10
2.574512580303867
 20
2.742475009595776
 30
0.0
 10
2.596933718864648
 20
2.755529564859027
 30
0.0
 10
2.606583992313391
 20
2.759943591279542
 30
0.0
 10
2.616231861608336
 20
2.764379255084438
 30
0.0
 10
2.62360540138593
 20
2.764638903697421
 30
0.0
 10
2.633301353757335
 20
2.767408488902447
 30
0.0
 10
2.64299730612874
 20
2.770202115645715
 30
0.0
 10
2.665466527766006
 20
2.782434450301227
 30
0.0
 10
2.672698222468019
 20
2.785956535653099
 30
0.0
 10
2.679929917170006
 20
2.789478621004971
 30
0.0
 10
2.686526915262523
 20
2.788069786864222
 30
0.0
 10
2.698663083765091
 20
2.791755354676108
 30
0.0
 10
2.704697509862828
 20
2.793611361428083
 30
0.0
 10
2.797178095003094
 20
2.825447166362892
 30
0.0
 10
2.806006253319083
 20
2.829931017301747
 30
0.0
  0
SPLINE
  5
B3
330
1F
100
AcDbEntity
  8
Wood
 62
   250
420
  2301728
370
    15
100
AcDbSpline
210
0.0
220
0.0
230
1.0
 70
     8
 71
     3
 72
    41
 73
    37
 74
     0
 42
0.0000000001
 43
0.0000000001
 12
1.0
 22
0.0
 32
0.0
 13
1.0
 23
0.0
 33
0.0
 40
0.0
 40
0.0
 40
0.0
 40
0.0
 40
1.0
 40
1.0
 40
1.0
 40
2.0
 40
2.0
 40
2.0
 40
3.0
 40
3.0
 40
3.0
 40
4.0
 40
4.0
 40
4.0
 40
5.0
 40
5.0
 40
5.0
 40
6.0
 40
6.0
 40
6.0
 40
7.0
 40
7.0
 40
7.0
 40
8.0
 40
8.0
 40
8.0
 40
9.0
 40
9.0
 40
9.0
 40
10.0
 40
10.0
 40
10.0
 40
11.0
 40
11.0
 40
11.0
 40
12.0
 40
12.0
 40
12.0
 40
12.0
 10
2.446556301339544
 20
2.614590953863676
 30
0.0
 10
2.464986544552832
 20
2.62503690361061
 30
0.0
 10
2.473908359392958
 20
2.626986672361707
 30
0.0
 10
2.490766286005484
 20
2.636564920368376
 30
0.0
 10
2.5075761295415
 20
2.646145374183599
 30
0.0
 10
2.52490286614966
 20
2.6647390998569
 30
0.0
 10
2.534764705134901
 20
2.663448069253516
 30
0.0
 10
2.54462413996632
 20
2.662157038650119
 30
0.0
 10
2.565542781787624
 20
2.671877032559779
 30
0.0
 10
2.576601889656482
 20
2.68206583646506
 30
0.0
 10
2.587706576488901
 20
2.692254640370341
 30
0.0
 10
2.610904256734784
 20
2.706155457779573
 30
0.0
 10
2.620600209106189
 20
2.709771406152514
 30
0.0
 10
2.630272119939339
 20
2.713363110943331
 30
0.0
 10
2.661475632418488
 20
2.733247867220017
 30
0.0
 10
2.673729706591833
 20
2.732848777685263
 30
0.0
 10
2.686010022190405
 20
2.73247372968875
 30
0.0
 10
2.693099871816811
 20
2.740080472387275
 30
0.0
 10
2.702795927055857
 20
2.74287409913053
 30
0.0
 10
2.712515818097851
 20
2.745667725873798
 30
0.0
 10
2.752148293883263
 20
2.75766445345457
 30
0.0
 10
2.765061004070907
 20
2.762196283412436
 30
0.0
 10
2.77799786056423
 20
2.766752154908545
 30
0.0
 10
2.800630459894086
 20
2.77325539100194
 30
0.0
 10
2.806450916301502
 20
2.771000294715211
 30
0.0
 10
2.812252139478359
 20
2.768771644120546
 30
0.0
 10
2.81734654143098
 20
2.763206028018443
 30
0.0
 10
2.828052344440316
 20
2.761140859883792
 30
0.0
 10
2.83873389384755
 20
2.759073287595318
 30
0.0
 10
2.858527292278925
 20
2.754026968719157
 30
0.0
 10
2.865052272723334
 20
2.754260171640049
 30
0.0
 10
2.871579443388353
 20
2.75447173717656
 30
0.0
 10
2.891795972892724
 20
2.760929294347294
 30
0.0
 10
2.898157471713426
 20
2.76604773783817
 30
0.0
 10
2.904518754928302
 20
2.771166181329047
 30
0.0
 10
2.908324530431375
 20
2.778655120490207
 30
0.0
 10
2.915671624516916
 20
2.778912364949355
 30
0.0
  0
SPLINE
  5
B4
330
1F
100
AcDbEntity
  8
Wood
 62
   250
420
  2301728
370
    15
100
AcDbSpline
210
0.0
220
0.0
230
1.0
 70
     8
 71
     3
 72
    53
 73
    49
 74
     0
 42
0.0000000001
 43
0.0000000001
 12
1.0
 22
0.0
 32
0.0
 13
1.0
 23
0.0
 33
0.0
 40
0.0
 40
0.0
 40
0.0
 40
0.0
 40
1.0
 40
1.0
 40
1.0
 40
2.0
 40
2.0
 40
2.0
 40
3.0
 40
3.0
 40
3.0
 40
4.0
 40
4.0
 40
4.0
 40
5.0
 40
5.0
 40
5.0
 40
6.0
 40
6.0
 40
6.0
 40
7.0
 40
7.0
 40
7.0
 40
8.0
 40
8.0
 40
8.0
 40
9.0
 40
9.0
 40
9.0
 40
10.0
 40
10.0
 40
10.0
 40
11.0
 40
11.0
 40
11.0
 40
12.0
 40
12.0
 40
12.0
 40
13.0
 40
13.0
 40
13.0
 40
14.0
 40
14.0
 40
14.0
 40
15.0
 40
15.0
 40
15.0
 40
16.0
 40
16.0
 40
16.0
 40
16.0
 10
2.990051335517768
 20
2.756161857314699
 30
0.0
 10
2.977278176053561
 20
2.74674729289672
 30
0.0
 10
2.965257406630851
 20
2.739775246631578
 30
0.0
 10
2.949926008198493
 20
2.734327332286903
 30
0.0
 10
2.934594719264093
 20
2.728905965414242
 30
0.0
 10
2.917010738196773
 20
2.717659333826469
 30
0.0
 10
2.903227724324905
 20
2.713901641399869
 30
0.0
 10
2.889492793529522
 20
2.710170394665321
 30
0.0
 10
2.874868325819332
 20
2.707186839769987
 30
0.0
 10
2.866790368971351
 20
2.704465337641434
 30
0.0
 10
2.85528649292443
 20
2.706506464237842
 30
0.0
 10
2.848901060368411
 20
2.702210241354704
 30
0.0
 10
2.844580795947043
 20
2.708595673910736
 30
0.0
 10
2.840284573063905
 20
2.714983510620578
 30
0.0
 10
2.83523585003392
 20
2.718902281353369
 30
0.0
 10
2.827770952411002
 20
2.721907473633135
 30
0.0
 10
2.820303650634262
 20
2.724912665912888
 30
0.0
 10
2.809739798732481
 20
2.723715498682875
 30
0.0
 10
2.807297178447496
 20
2.72282345624002
 30
0.0
 10
2.80487859970074
 20
2.721907473633135
 30
0.0
 10
2.806662481838
 20
2.71789494090121
 30
0.0
 10
2.801849365882743
 20
2.715288838156198
 30
0.0
 10
2.797036249927487
 20
2.712658693872956
 30
0.0
 10
2.781729002531342
 20
2.706388660700466
 30
0.0
 10
2.769475030491397
 20
2.705967933781317
 30
0.0
 10
2.757242695835885
 20
2.70554480270832
 30
0.0
 10
2.736227987262029
 20
2.699087245537587
 30
0.0
 10
2.726510397506217
 20
2.696293618794332
 30
0.0
 10
2.716790403596582
 20
2.693499992051064
 30
0.0
 10
2.684437705589643
 20
2.684203129214413
 30
0.0
 10
2.676314069819
 20
2.682277402001558
 30
0.0
 10
2.668072630511006
 20
2.684438736289154
 30
0.0
 10
2.66180259733854
 20
2.676877672513291
 30
0.0
 10
2.66180259733854
 20
2.676877672513291
 30
0.0
 10
2.66180259733854
 20
2.676877672513291
 30
0.0
 10
2.649853952834216
 20
2.668285226747015
 30
0.0
 10
2.640158000462811
 20
2.664669479278612
 30
0.0
 10
2.630459643937608
 20
2.661077573583245
 30
0.0
 10
2.620059274495816
 20
2.654995064409023
 30
0.0
 10
2.612851621332058
 20
2.650629220592893
 30
0.0
 10
2.605668110120556
 20
2.646308856643625
 30
0.0
 10
2.576931159050597
 20
2.626517862366073
 30
0.0
 10
2.563148145178729
 20
2.62276016993946
 30
0.0
 10
2.54939157699894
 20
2.619004881666683
 30
0.0
 10
2.520582601728291
 20
2.601654103520294
 30
0.0
 10
2.510040387210918
 20
2.598836435238796
 30
0.0
 10
2.499522214231774
 20
2.595994725419044
 30
0.0
 10
2.475646562607557
 20
2.57801165481702
 30
0.0
 10
2.468626433442068
 20
2.567962291833497
 30
0.0
  0
SPLINE
  5
B5
330
1F
100
AcDbEntity
  8
Wood
 62
   250
420
  2301728
370
    15
100
AcDbSpline
210
0.0
220
0.0
230
1.0
 70
     8
 71
     3
 72
    14
 73
    10
 74
     0
 42
0.0000000001
 43
0.0000000001
 12
1.0
 22
0.0
 32
0.0
 13
1.0
 23
0.0
 33
0.0
 40
0.0
 40
0.0
 40
0.0
 40
0.0
 40
1.0
 40
1.0
 40
1.0
 40
2.0
 40
2.0
 40
2.0
 40
3.0
 40
3.0
 40
3.0
 40
3.0
 10
2.604095693105768
 20
2.597216035561562
 30
0.0
 10
2.615950575610946
 20
2.60907332222055
 30
0.0
 10
2.66412741408615
 20
2.633631852629214
 30
0.0
 10
2.674645587065293
 20
2.636449421812206
 30
0.0
 10
2.685163760044436
 20
2.639264685939881
 30
0.0
 10
2.709416863818963
 20
2.647482083709633
 30
0.0
 10
2.725709814282886
 20
2.648869280465975
 30
0.0
 10
2.742005168900631
 20
2.650254073068481
 30
0.0
 10
2.810958810321229
 20
2.664904986470749
 30
0.0
 10
2.810958810321229
 20
2.664904986470749
 30
0.0
  0
SPLINE
  5
B6
330
1F
100
AcDbEntity
  8
Wood
 62
   250
420
  2301728
370
    15
100
AcDbSpline
210
0.0
220
0.0
230
1.0
 70
     8
 71
     3
 72
    26
 73
    22
 74
     0
 42
0.0000000001
 43
0.0000000001
 12
1.0
 22
0.0
 32
0.0
 13
1.0
 23
0.0
 33
0.0
 40
0.0
 40
0.0
 40
0.0
 40
0.0
 40
1.0
 40
1.0
 40
1.0
 40
2.0
 40
2.0
 40
2.0
 40
3.0
 40
3.0
 40
3.0
 40
4.0
 40
4.0
 40
4.0
 40
5.0
 40
5.0
 40
5.0
 40
6.0
 40
6.0
 40
6.0
 40
7.0
 40
7.0
 40
7.0
 40
7.0
 10
2.733222794982263
 20
2.597639166634546
 30
0.0
 10
2.755175123547436
 20
2.600855924450798
 30
0.0
 10
2.765505772528311
 20
2.609402691294399
 30
0.0
 10
2.777692428261162
 20
2.61144381789082
 30
0.0
 10
2.789876679840214
 20
2.613511390179295
 30
0.0
 10
2.798045994533494
 20
2.613792676176672
 30
0.0
 10
2.808588209050868
 20
2.615812165388686
 30
0.0
 10
2.819154465106496
 20
2.617807613062432
 30
0.0
 10
2.824061448991971
 20
2.617971095522446
 30
0.0
 10
2.835610898030432
 20
2.61430956924879
 30
0.0
 10
2.847186898692042
 20
2.610600058415318
 30
0.0
 10
2.85725789905996
 20
2.602781651663652
 30
0.0
 10
2.866062017354857
 20
2.607993857153651
 30
0.0
 10
2.874889963203739
 20
2.613206062643674
 30
0.0
 10
2.883107468396222
 20
2.611842907425575
 30
0.0
 10
2.892899479497853
 20
2.612217955422074
 30
0.0
 10
2.90271323540661
 20
2.612547423061806
 30
0.0
 10
2.919828406478271
 20
2.613956158636698
 30
0.0
 10
2.931894854519947
 20
2.618463947056322
 30
0.0
 10
2.944009385638108
 20
2.622971735475959
 30
0.0
 10
2.976455845644169
 20
2.629850019565866
 30
0.0
 10
2.989628204444772
 20
2.6278329345077
 30
0.0
  0
SPLINE
  5
B7
330
1F
100
AcDbEntity
  8
Wood
 62
   250
420
  2301728
370
    15
100
AcDbSpline
210
0.0
220
0.0
230
1.0
 70
     8
 71
     3
 72
    11
 73
     7
 74
     0
 42
0.0000000001
 43
0.0000000001
 12
1.0
 22
0.0
 32
0.0
 13
1.0
 23
0.0
 33
0.0
 40
0.0
 40
0.0
 40
0.0
 40
0.0
 40
1.0
 40
1.0
 40
1.0
 40
2.0
 40
2.0
 40
2.0
 40
2.0
 10
2.934948129876173
 20
2.672511729169261
 30
0.0
 10
2.944480599787564
 20
2.679390013259169
 30
0.0
 10
2.953212595669356
 20
2.68704243488033
 30
0.0
 10
2.958802144115957
 20
2.691341061917291
 30
0.0
 10
2.964365356064238
 20
2.695613243262174
 30
0.0
 10
2.97856909685528
 20
2.710004508051485
 30
0.0
 10
2.989274903937434
 20
2.707915298378591
 30
0.0
  0
SPLINE
  5
B8
330
1F
100
AcDbEntity
  8
Wood
 62
   250
420
  2301728
370
    15
100
AcDbSpline
210
0.0
220
0.0
230
1.0
 70
     8
 71
     3
 72
    17
 73
    13
 74
     0
 42
0.0000000001
 43
0.0000000001
 12
1.0
 22
0.0
 32
0.0
 13
1.0
 23
0.0
 33
0.0
 40
0.0
 40
0.0
 40
0.0
 40
0.0
 40
1.0
 40
1.0
 40
1.0
 40
2.0
 40
2.0
 40
2.0
 40
3.0
 40
3.0
 40
3.0
 40
4.0
 40
4.0
 40
4.0
 40
4.0
 10
2.992844962261036
 20
2.582190074162769
 30
0.0
 10
2.971784574764519
 20
2.576554737599773
 30
0.0
 10
2.965305489708574
 20
2.575499411701091
 30
0.0
 10
2.943235357048505
 20
2.574749218078106
 30
0.0
 10
2.921213307466158
 20
2.573948634854774
 30
0.0
 10
2.87975116223548
 20
2.567611285375228
 30
0.0
 10
2.868362685572113
 20
2.565591796163226
 30
0.0
 10
2.85845516766421
 20
2.568503323897112
 30
0.0
 10
2.867776072039103
 20
2.559018839608939
 30
0.0
 10
2.856132861811703
 20
2.565144623551999
 30
0.0
 10
2.844487033947921
 20
2.571272811648883
 30
0.0
 10
2.822840032918394
 20
2.582776687695779
 30
0.0
 10
2.812062211326267
 20
2.586486394953441
 30
0.0
  0
SPLINE
  5
B9
330
1F
100
AcDbEntity
  8
Wood
 62
   250
420
  2301728
370
    15
100
AcDbSpline
210
0.0
220
0.0
230
1.0
 70
     8
 71
     3
 72
    35
 73
    31
 74
     0
 42
0.0000000001
 43
0.0000000001
 12
1.0
 22
0.0
 32
0.0
 13
1.0
 23
0.0
 33
0.0
 40
0.0
 40
0.0
 40
0.0
 40
0.0
 40
1.0
 40
1.0
 40
1.0
 40
2.0
 40
2.0
 40
2.0
 40
3.0
 40
3.0
 40
3.0
 40
4.0
 40
4.0
 40
4.0
 40
5.0
 40
5.0
 40
5.0
 40
6.0
 40
6.0
 40
6.0
 40
7.0
 40
7.0
 40
7.0
 40
8.0
 40
8.0
 40
8.0
 40
9.0
 40
9.0
 40
9.0
 40
10.0
 40
10.0
 40
10.0
 40
10.0
 10
2.579864226715649
 20
2.589022679330014
 30
0.0
 10
2.602004079279065
 20
2.5873325591919
 30
0.0
 10
2.613462276403298
 20
2.586087207511165
 30
0.0
 10
2.624237693841602
 20
2.582377598161037
 30
0.0
 10
2.634991473895474
 20
2.578667988810897
 30
0.0
 10
2.664574586697376
 20
2.573996717931259
 30
0.0
 10
2.675186521675641
 20
2.574347724389516
 30
0.0
 10
2.683543360367189
 20
2.568926357516842
 30
0.0
 10
2.695330926565298
 20
2.559533328527234
 30
0.0
 10
2.704558068941044
 20
2.552513199361745
 30
0.0
 10
2.713785211316816
 20
2.545471529683216
 30
0.0
 10
2.729630989169512
 20
2.536220248897823
 30
0.0
 10
2.742029210438861
 20
2.532558722624155
 30
0.0
 10
2.754425027554387
 20
2.528918833734918
 30
0.0
 10
2.756514237227293
 20
2.515912361548152
 30
0.0
 10
2.769708233412328
 20
2.512272472658916
 30
0.0
 10
2.782904633751185
 20
2.508656625307923
 30
0.0
 10
2.802765348489629
 20
2.501989906754501
 30
0.0
 10
2.809410429658606
 20
2.498936631398275
 30
0.0
 10
2.816055616556443
 20
2.495909801734102
 30
0.0
 10
2.834298230042628
 20
2.488372874925429
 30
0.0
 10
2.841856889664667
 20
2.482102746324017
 30
0.0
 10
2.849439590824962
 20
2.475835117305349
 30
0.0
 10
2.859325471348433
 20
2.473721866094214
 30
0.0
 10
2.867518827579968
 20
2.473180931483865
 30
0.0
 10
2.875712183811477
 20
2.472666442565544
 30
0.0
 10
2.904331230930034
 20
2.472031745956075
 30
0.0
 10
2.915765386516063
 20
2.472430835490842
 30
0.0
 10
2.927199650638663
 20
2.472829925025558
 30
0.0
 10
2.976903018255396
 20
2.47700834437137
 30
0.0
 10
2.992373748111554
 20
2.478371594765728
 30
0.0
  0
SPLINE
  5
BA
330
1F
100
AcDbEntity
  8
Wood
 62
   250
420
  2301728
370
    15
100
AcDbSpline
210
0.0
220
0.0
230
1.0
 70
     8
 71
     3
 72
    29
 73
    25
 74
     0
 42
0.0000000001
 43
0.0000000001
 12
1.0
 22
0.0
 32
0.0
 13
1.0
 23
0.0
 33
0.0
 40
0.0
 40
0.0
 40
0.0
 40
0.0
 40
1.0
 40
1.0
 40
1.0
 40
2.0
 40
2.0
 40
2.0
 40
3.0
 40
3.0
 40
3.0
 40
4.0
 40
4.0
 40
4.0
 40
5.0
 40
5.0
 40
5.0
 40
6.0
 40
6.0
 40
6.0
 40
7.0
 40
7.0
 40
7.0
 40
8.0
 40
8.0
 40
8.0
 40
8.0
 10
2.992844962261036
 20
2.535585552288328
 30
0.0
 10
2.97659769071975
 20
2.532580360008587
 30
0.0
 10
2.953753421085973
 20
2.531782180939078
 30
0.0
 10
2.943211315509668
 20
2.528966916811403
 30
0.0
 10
2.932668992051226
 20
2.526149248529906
 30
0.0
 10
2.882097723764723
 20
2.523564783169313
 30
0.0
 10
2.868951703258947
 20
2.525562634996908
 30
0.0
 10
2.855827427534804
 20
2.527558082670655
 30
0.0
 10
2.852610669718539
 20
2.525795837917801
 30
0.0
 10
2.843477289341914
 20
2.529575167728821
 30
0.0
 10
2.83434390896529
 20
2.533332860155433
 30
0.0
 10
2.816382475747635
 20
2.532698163545938
 30
0.0
 10
2.809761436116888
 20
2.535727397363934
 30
0.0
 10
2.803118759101709
 20
2.538780672720172
 30
0.0
 10
2.795723581939708
 20
2.53934324471494
 30
0.0
 10
2.789030417694221
 20
2.544014515594603
 30
0.0
 10
2.782315616064352
 20
2.548688190628063
 30
0.0
 10
2.778206917179457
 20
2.549344524621978
 30
0.0
 10
2.766539558672548
 20
2.556316570710995
 30
0.0
 10
2.75486990019499
 20
2.563242937877362
 30
0.0
 10
2.744774754105644
 20
2.571061246112385
 30
0.0
 10
2.737237731868011
 20
2.576533197871425
 30
0.0
 10
2.729679072245972
 20
2.581978508626257
 30
0.0
 10
2.723505205226451
 20
2.594845539891278
 30
0.0
 10
2.711835545661744
 20
2.600973727988162
 30
0.0
  0
SPLINE
  5
BB
330
1F
100
AcDbEntity
  8
Wood
 62
   250
420
  2301728
370
    15
100
AcDbSpline
210
0.0
220
0.0
230
1.0
 70
     8
 71
     3
 72
    41
 73
    37
 74
     0
 42
0.0000000001
 43
0.0000000001
 12
1.0
 22
0.0
 32
0.0
 13
1.0
 23
0.0
 33
0.0
 40
0.0
 40
0.0
 40
0.0
 40
0.0
 40
1.0
 40
1.0
 40
1.0
 40
2.0
 40
2.0
 40
2.0
 40
3.0
 40
3.0
 40
3.0
 40
4.0
 40
4.0
 40
4.0
 40
5.0
 40
5.0
 40
5.0
 40
6.0
 40
6.0
 40
6.0
 40
7.0
 40
7.0
 40
7.0
 40
8.0
 40
8.0
 40
8.0
 40
9.0
 40
9.0
 40
9.0
 40
10.0
 40
10.0
 40
10.0
 40
11.0
 40
11.0
 40
11.0
 40
12.0
 40
12.0
 40
12.0
 40
12.0
 10
2.446299056880384
 20
2.552467617487196
 30
0.0
 10
2.459541136141903
 20
2.5472072318726
 30
0.0
 10
2.48438085344944
 20
2.538285417032474
 30
0.0
 10
2.499899666382109
 20
2.538802310104592
 30
0.0
 10
2.515418479314753
 20
2.53936728625317
 30
0.0
 10
2.559604521692791
 20
2.537629083038571
 30
0.0
 10
2.575075152298622
 20
2.538989834102836
 30
0.0
 10
2.590572327846858
 20
2.540352989320948
 30
0.0
 10
2.606795557849889
 20
2.543382223138918
 30
0.0
 10
2.615926534072691
 20
2.539600489174063
 30
0.0
 10
2.625035872911086
 20
2.535821159363056
 30
0.0
 10
2.646377546404993
 20
2.533308818617204
 30
0.0
 10
2.67248665693152
 20
2.535022980293573
 30
0.0
 10
2.687512618330275
 20
2.525750158995164
 30
0.0
 10
2.685000277584423
 20
2.527298434057671
 30
0.0
 10
2.6951193610288
 20
2.518657905214935
 30
0.0
 10
2.705214402934947
 20
2.510019780525997
 30
0.0
 10
2.70636599261656
 20
2.501073924147641
 30
0.0
 10
2.72050001294671
 20
2.49421727744214
 30
0.0
 10
2.734631629123012
 20
2.487363130293955
 30
0.0
 10
2.797764708536104
 20
2.457662118551222
 30
0.0
 10
2.809340709197714
 20
2.454000592277528
 30
0.0
 10
2.820914305705527
 20
2.450315118933203
 30
0.0
 10
2.827629107335396
 20
2.444821532978242
 30
0.0
 10
2.838476649388415
 20
2.438669303343128
 30
0.0
 10
2.849324191441408
 20
2.432495436323633
 30
0.0
 10
2.8543945518558
 20
2.427797719751905
 30
0.0
 10
2.867494786041713
 20
2.426600451147654
 30
0.0
 10
2.872355985073455
 20
2.428408374823145
 30
0.0
 10
2.873952343212447
 20
2.429278772443467
 30
0.0
 10
2.888672977075607
 20
2.428997392510003
 30
0.0
 10
2.903393610938767
 20
2.428692064974358
 30
0.0
 10
2.929454638388784
 20
2.431226137089955
 30
0.0
 10
2.939268503138995
 20
2.431579453716747
 30
0.0
 10
2.949058108668093
 20
2.431906418636774
 30
0.0
 10
2.979249582238885
 20
2.432964246319241
 30
0.0
 10
2.993220010257548
 20
2.430992840183737
 30
0.0
  0
SPLINE
  5
BC
330
1F
100
AcDbEntity
  8
Wood
 62
   250
420
  2301728
370
    15
100
AcDbSpline
210
0.0
220
0.0
230
1.0
 70
     8
 71
     3
 72
    14
 73
    10
 74
     0
 42
0.0000000001
 43
0.0000000001
 12
1.0
 22
0.0
 32
0.0
 13
1.0
 23
0.0
 33
0.0
 40
0.0
 40
0.0
 40
0.0
 40
0.0
 40
1.0
 40
1.0
 40
1.0
 40
2.0
 40
2.0
 40
2.0
 40
3.0
 40
3.0
 40
3.0
 40
3.0
 10
2.808494447051746
 20
2.408194342876059
 30
0.0
 10
2.7863305529501
 20
2.410682548680243
 30
0.0
 10
2.774732914904057
 20
2.415190430680114
 30
0.0
 10
2.758134636904515
 20
2.422775442413998
 30
0.0
 10
2.741512317366742
 20
2.430382185112497
 30
0.0
 10
2.730501292853735
 20
2.441438888548166
 30
0.0
 10
2.717211130515731
 20
2.447521397722388
 30
0.0
 10
2.703923372331575
 20
2.453601502742812
 30
0.0
 10
2.687137570333764
 20
2.466067040319204
 30
0.0
 10
2.678660523951041
 20
2.474777289622883
 30
0.0
  0
SPLINE
  5
BD
330
1F
100
AcDbEntity
  8
Wood
 62
   250
420
  2301728
370
    15
100
AcDbSpline
210
0.0
220
0.0
230
1.0
 70
     8
 71
     3
 72
    20
 73
    16
 74
     0
 42
0.0000000001
 43
0.0000000001
 12
1.0
 22
0.0
 32
0.0
 13
1.0
 23
0.0
 33
0.0
 40
0.0
 40
0.0
 40
0.0
 40
0.0
 40
1.0
 40
1.0
 40
1.0
 40
2.0
 40
2.0
 40
2.0
 40
3.0
 40
3.0
 40
3.0
 40
4.0
 40
4.0
 40
4.0
 40
5.0
 40
5.0
 40
5.0
 40
5.0
 10
2.673729706591833
 20
2.499124155396518
 30
0.0
 10
2.654994033709525
 20
2.496823380187139
 30
0.0
 10
2.646144343484088
 20
2.493255615912631
 30
0.0
 10
2.628158868728228
 20
2.493443139910887
 30
0.0
 10
2.610175798126167
 20
2.49363066390913
 30
0.0
 10
2.586439587423759
 20
2.494428842978639
 30
0.0
 10
2.570050470806867
 20
2.495510712199335
 30
0.0
 10
2.553687799882078
 20
2.496542094189749
 30
0.0
 10
2.538873404019796
 20
2.49931408354861
 30
0.0
 10
2.528400909963289
 20
2.494876015589865
 30
0.0
 10
2.51793082006063
 20
2.490392364188425
 30
0.0
 10
2.499805904382987
 20
2.494688491591596
 30
0.0
 10
2.485789687590189
 20
2.497458076796634
 30
0.0
 10
2.471819149720078
 20
2.500227662001647
 30
0.0
 10
2.45305953743294
 20
2.498749107399994
 30
0.0
 10
2.445546556733537
 20
2.503422878242658
 30
0.0
  0
SPLINE
  5
BE
330
1F
100
AcDbEntity
  8
Wood
 62
   250
420
  2301728
370
    15
100
AcDbSpline
210
0.0
220
0.0
230
1.0
 70
     8
 71
     3
 72
    20
 73
    16
 74
     0
 42
0.0000000001
 43
0.0000000001
 12
1.0
 22
0.0
 32
0.0
 13
1.0
 23
0.0
 33
0.0
 40
0.0
 40
0.0
 40
0.0
 40
0.0
 40
1.0
 40
1.0
 40
1.0
 40
2.0
 40
2.0
 40
2.0
 40
3.0
 40
3.0
 40
3.0
 40
4.0
 40
4.0
 40
4.0
 40
5.0
 40
5.0
 40
5.0
 40
5.0
 10
2.443856436595398
 20
2.458390577159813
 30
0.0
 10
2.460433173955607
 20
2.451630096607258
 30
0.0
 10
2.46874423697942
 20
2.447826725258033
 30
0.0
 10
2.484287091450319
 20
2.44754303510682
 30
0.0
 10
2.499827541767394
 20
2.447261843499796
 30
0.0
 10
2.509432136293476
 20
2.452522037675913
 30
0.0
 10
2.521921715408148
 20
2.446417891117259
 30
0.0
 10
2.534387252984566
 20
2.440313838773515
 30
0.0
 10
2.558053743226108
 20
2.441133561012571
 30
0.0
 10
2.575241038912458
 20
2.440921995476047
 30
0.0
 10
2.592401888906781
 20
2.440712834093372
 30
0.0
 10
2.610550846122679
 20
2.435616027986927
 30
0.0
 10
2.620201119571422
 20
2.440852275015156
 30
0.0
 10
2.629827351481936
 20
2.446088522043434
 30
0.0
 10
2.665512206688668
 20
2.453060568132464
 30
0.0
 10
2.674739451223331
 20
2.446838618036458
 30
0.0
  0
SPLINE
  5
BF
330
1F
100
AcDbEntity
  8
Wood
 62
   250
420
  2301728
370
    15
100
AcDbSpline
210
0.0
220
0.0
230
1.0
 70
     8
 71
     3
 72
    17
 73
    13
 74
     0
 42
0.0000000001
 43
0.0000000001
 12
1.0
 22
0.0
 32
0.0
 13
1.0
 23
0.0
 33
0.0
 40
0.0
 40
0.0
 40
0.0
 40
0.0
 40
1.0
 40
1.0
 40
1.0
 40
2.0
 40
2.0
 40
2.0
 40
3.0
 40
3.0
 40
3.0
 40
4.0
 40
4.0
 40
4.0
 40
4.0
 10
2.444724336125799
 20
2.41018979060027
 30
0.0
 10
2.456276295249179
 20
2.406504129334482
 30
0.0
 10
2.478582034426431
 20
2.399952810164601
 30
0.0
 10
2.488395790335213
 20
2.399459958630713
 30
0.0
 10
2.498231183628377
 20
2.398991148635105
 30
0.0
 10
2.544859747041048
 20
2.398169021177586
 30
0.0
 10
2.559510660443316
 20
2.399508041707223
 30
0.0
 10
2.574183211229991
 20
2.400847155387055
 30
0.0
 10
2.606817195234321
 20
2.401972299376616
 30
0.0
 10
2.621609953712171
 20
2.400046572163723
 30
0.0
 10
2.636376266497968
 20
2.398099207566449
 30
0.0
 10
2.667274451441497
 20
2.403263329979988
 30
0.0
 10
2.676359748741662
 20
2.400330262314936
 30
0.0
  0
SPLINE
  5
C0
330
1F
100
AcDbEntity
  8
Wood
 62
   250
420
  2301728
370
    15
100
AcDbSpline
210
0.0
220
0.0
230
1.0
 70
     8
 71
     3
 72
    17
 73
    13
 74
     0
 42
0.0000000001
 43
0.0000000001
 12
1.0
 22
0.0
 32
0.0
 13
1.0
 23
0.0
 33
0.0
 40
0.0
 40
0.0
 40
0.0
 40
0.0
 40
1.0
 40
1.0
 40
1.0
 40
2.0
 40
2.0
 40
2.0
 40
3.0
 40
3.0
 40
3.0
 40
4.0
 40
4.0
 40
4.0
 40
4.0
 10
2.677956106880679
 20
2.424888693625083
 30
0.0
 10
2.689647506925818
 20
2.417938284920486
 30
0.0
 10
2.697326374239057
 20
2.408405815009094
 30
0.0
 10
2.710520370424092
 20
2.404765926119883
 30
0.0
 10
2.723738408147356
 20
2.401150171994383
 30
0.0
 10
2.737192052945375
 20
2.390163188742058
 30
0.0
 10
2.7471933328524
 20
2.384811449382293
 30
0.0
 10
2.75717057122117
 20
2.379433357278433
 30
0.0
 10
2.779639792858461
 20
2.367977564307997
 30
0.0
 10
2.789641072765486
 20
2.362577834819755
 30
0.0
 10
2.799642352672511
 20
2.357223784254125
 30
0.0
 10
2.804010805594948
 20
2.349193910482629
 30
0.0
 10
2.808847857663851
 20
2.351001834158119
 30
0.0
  0
SPLINE
  5
C1
330
1F
100
AcDbEntity
  8
Wood
 62
   250
420
  2301728
370
    15
100
AcDbSpline
210
0.0
220
0.0
230
1.0
 70
     8
 71
     3
 72
    14
 73
    10
 74
     0
 42
0.0000000001
 43
0.0000000001
 12
1.0
 22
0.0
 32
0.0
 13
1.0
 23
0.0
 33
0.0
 40
0.0
 40
0.0
 40
0.0
 40
0.0
 40
1.0
 40
1.0
 40
1.0
 40
2.0
 40
2.0
 40
2.0
 40
3.0
 40
3.0
 40
3.0
 40
3.0
 10
2.67715792781117
 20
2.377461951142929
 30
0.0
 10
2.686361028648687
 20
2.371240001046923
 30
0.0
 10
2.702185169116951
 20
2.36281103774066
 30
0.0
 10
2.710662215499699
 20
2.354100880473955
 30
0.0
 10
2.719160899266853
 20
2.345414580671634
 30
0.0
 10
2.727589862573091
 20
2.337548189360152
 30
0.0
 10
2.740807900296381
 20
2.333910704624739
 30
0.0
 10
2.754001896481415
 20
2.330294857273707
 30
0.0
 10
2.760060364117382
 20
2.320692666901424
 30
0.0
 10
2.767573344816785
 20
2.316067166020629
 30
0.0
  0
SPLINE
  5
C2
330
1F
100
AcDbEntity
  8
Wood
 62
   250
420
  2301728
370
    15
100
AcDbSpline
210
0.0
220
0.0
230
1.0
 70
     8
 71
     3
 72
    17
 73
    13
 74
     0
 42
0.0000000001
 43
0.0000000001
 12
1.0
 22
0.0
 32
0.0
 13
1.0
 23
0.0
 33
0.0
 40
0.0
 40
0.0
 40
0.0
 40
0.0
 40
1.0
 40
1.0
 40
1.0
 40
2.0
 40
2.0
 40
2.0
 40
3.0
 40
3.0
 40
3.0
 40
4.0
 40
4.0
 40
4.0
 40
4.0
 10
2.447635766406443
 20
2.349828607092149
 30
0.0
 10
2.458858356455949
 20
2.356754974258517
 30
0.0
 10
2.469376626406099
 20
2.359572642540014
 30
0.0
 10
2.481774750704441
 20
2.355932753650753
 30
0.0
 10
2.494146526281737
 20
2.352268823223312
 30
0.0
 10
2.527814296430279
 20
2.347739397419244
 30
0.0
 10
2.542417126756062
 20
2.350672465084295
 30
0.0
 10
2.557019957081871
 20
2.353656019979603
 30
0.0
 10
2.581744275005854
 20
2.347972600340149
 30
0.0
 10
2.596392784254299
 20
2.350134026564521
 30
0.0
 10
2.611019656118313
 20
2.352268823223312
 30
0.0
 10
2.677133886272915
 20
2.354569598432691
 30
0.0
 10
2.677133886272915
 20
2.354569598432691
 30
0.0
  0
SPLINE
  5
C3
330
1F
100
AcDbEntity
  8
Wood
 62
   250
420
  2301728
370
    15
100
AcDbSpline
210
0.0
220
0.0
230
1.0
 70
     8
 71
     3
 72
    11
 73
     7
 74
     0
 42
0.0000000001
 43
0.0000000001
 12
1.0
 22
0.0
 32
0.0
 13
1.0
 23
0.0
 33
0.0
 40
0.0
 40
0.0
 40
0.0
 40
0.0
 40
1.0
 40
1.0
 40
1.0
 40
2.0
 40
2.0
 40
2.0
 40
2.0
 10
2.560448280434608
 20
2.302284061072593
 30
0.0
 10
2.538168986949409
 20
2.308859421780703
 30
0.0
 10
2.532533748952877
 20
2.306205235959219
 30
0.0
 10
2.51614693792337
 20
2.307287105179916
 30
0.0
 10
2.499781862844732
 20
2.308318487170304
 30
0.0
 10
2.46461149655632
 20
2.308741618243301
 30
0.0
 10
2.446205294881262
 20
2.321185518435312
 30
0.0
  0
INSERT
  5
C5
330
1F
100
AcDbEntity
  8
Wood
100
AcDbBlockReference
  2
block 2
 10
0.0
 20
0.0
 30
0.0
  0
SPLINE
  5
1F3
330
1F
100
AcDbEntity
  8
Wood
 62
   250
420
  2301728
370
    15
100
AcDbSpline
210
0.0
220
0.0
230
1.0
 70
     8
 71
     3
 72
     8
 73
     4
 74
     0
 42
0.0000000001
 43
0.0000000001
 12
1.0
 22
0.0
 32
0.0
 13
1.0
 23
0.0
 33
0.0
 40
0.0
 40
0.0
 40
0.0
 40
0.0
 40
1.0
 40
1.0
 40
1.0
 40
1.0
 10
2.811006893398927
 20
2.811406908031876
 30
0.0
 10
2.826619362729414
 20
2.812111325102263
 30
0.0
 10
2.850355573431822
 20
2.799737145371144
 30
0.0
 10
2.860592460413575
 20
2.802391331192616
 30
0.0
  0
SPLINE
  5
1F4
330
1F
100
AcDbEntity
  8
Wood
 62
   250
420
  2301728
370
    15
100
AcDbSpline
210
0.0
220
0.0
230
1.0
 70
     8
 71
     3
 72
     8
 73
     4
 74
     0
 42
0.0000000001
 43
0.0000000001
 12
1.0
 22
0.0
 32
0.0
 13
1.0
 23
0.0
 33
0.0
 40
0.0
 40
0.0
 40
0.0
 40
0.0
 40
1.0
 40
1.0
 40
1.0
 40
1.0
 10
2.812509383937494
 20
2.851977108422956
 30
0.0
 10
2.829319227473535
 20
2.849207418603555
 30
0.0
 10
2.846412761160789
 20
2.842819581893688
 30
0.0
 10
2.863597652693342
 20
2.839956339000259
 30
0.0
  0
SPLINE
  5
1F5
330
1F
100
AcDbEntity
  8
Wood
 62
   250
420
  2301728
370
    15
100
AcDbSpline
210
0.0
220
0.0
230
1.0
 70
     8
 71
     3
 72
    11
 73
     7
 74
     0
 42
0.0000000001
 43
0.0000000001
 12
1.0
 22
0.0
 32
0.0
 13
1.0
 23
0.0
 33
0.0
 40
0.0
 40
0.0
 40
0.0
 40
0.0
 40
1.0
 40
1.0
 40
1.0
 40
2.0
 40
2.0
 40
2.0
 40
2.0
 10
2.798986123976242
 20
2.915086147892073
 30
0.0
 10
2.812533425475749
 20
2.911681759868922
 30
0.0
 10
2.825446135663393
 20
2.900716414278552
 30
0.0
 10
2.838757935385779
 20
2.897030952219186
 30
0.0
 10
2.846059457035507
 20
2.895011462956214
 30
0.0
 10
2.855029248465295
 20
2.89714865000403
 30
0.0
 10
2.860592460413575
 20
2.892547099585259
 30
0.0
  0
SPLINE
  5
1F6
330
1F
100
AcDbEntity
  8
Wood
 62
   250
420
  2301728
370
    15
100
AcDbSpline
210
0.0
220
0.0
230
1.0
 70
     8
 71
     3
 72
    11
 73
     7
 74
     0
 42
0.0000000001
 43
0.0000000001
 12
1.0
 22
0.0
 32
0.0
 13
1.0
 23
0.0
 33
0.0
 40
0.0
 40
0.0
 40
0.0
 40
0.0
 40
1.0
 40
1.0
 40
1.0
 40
2.0
 40
2.0
 40
2.0
 40
2.0
 10
2.869608037252849
 20
2.803894030732193
 30
0.0
 10
2.894305909484779
 20
2.82126874701713
 30
0.0
 10
2.925720987500426
 20
2.824483100679547
 30
0.0
 10
2.952157062946981
 20
2.837607376403702
 30
0.0
 10
2.963449373457378
 20
2.843218671428455
 30
0.0
 10
2.976386125183277
 20
2.846906643394176
 30
0.0
 10
2.988313242383609
 20
2.851977108422956
 30
0.0
  0
SPLINE
  5
1F7
330
1F
100
AcDbEntity
  8
Wood
 62
   250
420
  2301728
370
    15
100
AcDbSpline
210
0.0
220
0.0
230
1.0
 70
     8
 71
     3
 72
     8
 73
     4
 74
     0
 42
0.0000000001
 43
0.0000000001
 12
1.0
 22
0.0
 32
0.0
 13
1.0
 23
0.0
 33
0.0
 40
0.0
 40
0.0
 40
0.0
 40
0.0
 40
1.0
 40
1.0
 40
1.0
 40
1.0
 10
2.91769111372893
 20
2.778349792954575
 30
0.0
 10
2.934782243262336
 20
2.787295649332956
 30
0.0
 10
2.9872577087745
 20
2.786004618729571
 30
0.0
 10
2.991318434739267
 20
2.803894030732193
 30
0.0
  0
SPLINE
  5
1F8
330
1F
100
AcDbEntity
  8
Wood
 62
   250
420
  2301728
370
    15
100
AcDbSpline
210
0.0
220
0.0
230
1.0
 70
     8
 71
     3
 72
    11
 73
     7
 74
     0
 42
0.0000000001
 43
0.0000000001
 12
1.0
 22
0.0
 32
0.0
 13
1.0
 23
0.0
 33
0.0
 40
0.0
 40
0.0
 40
0.0
 40
0.0
 40
1.0
 40
1.0
 40
1.0
 40
2.0
 40
2.0
 40
2.0
 40
2.0
 10
2.865100355801031
 20
2.841458830829424
 30
0.0
 10
2.892803313344908
 20
2.860170360040102
 30
0.0
 10
2.928771858702829
 20
2.861485432181717
 30
0.0
 10
2.957931840431759
 20
2.877968310797718
 30
0.0
 10
2.967252854355037
 20
2.883250236748621
 30
0.0
 10
2.975729791189375
 20
2.889989079916732
 30
0.0
 10
2.986810536163274
 20
2.891044609046692
 30
0.0
  0
SPLINE
  5
1F9
330
1F
100
AcDbEntity
  8
Wood
 62
   250
420
  2301728
370
    15
100
AcDbSpline
210
0.0
220
0.0
230
1.0
 70
     8
 71
     3
 72
    11
 73
     7
 74
     0
 42
0.0000000001
 43
0.0000000001
 12
1.0
 22
0.0
 32
0.0
 13
1.0
 23
0.0
 33
0.0
 40
0.0
 40
0.0
 40
0.0
 40
0.0
 40
1.0
 40
1.0
 40
1.0
 40
2.0
 40
2.0
 40
2.0
 40
2.0
 10
2.672768045038007
 20
2.839956339000259
 30
0.0
 10
2.690751116094336
 20
2.838242073013185
 30
0.0
 10
2.720944781404114
 20
2.847469215388944
 30
0.0
 10
2.737708946017493
 20
2.854489344554445
 30
0.0
 10
2.746936192375971
 20
2.858338394826357
 30
0.0
 10
2.753908238641138
 20
2.865570089528357
 30
0.0
 10
2.764426307461412
 20
2.867003070201311
 30
0.0
  0
SPLINE
  5
1FA
330
1F
100
AcDbEntity
  8
Wood
 62
   250
420
  2301728
370
    15
100
AcDbSpline
210
0.0
220
0.0
230
1.0
 70
     8
 71
     3
 72
    17
 73
    13
 74
     0
 42
0.0000000001
 43
0.0000000001
 12
1.0
 22
0.0
 32
0.0
 13
1.0
 23
0.0
 33
0.0
 40
0.0
 40
0.0
 40
0.0
 40
0.0
 40
1.0
 40
1.0
 40
1.0
 40
2.0
 40
2.0
 40
2.0
 40
3.0
 40
3.0
 40
3.0
 40
4.0
 40
4.0
 40
4.0
 40
4.0
 10
2.866602844973082
 20
2.894049801402363
 30
0.0
 10
2.881535044372741
 20
2.897689584614378
 30
0.0
 10
2.901491925264129
 20
2.90562329223293
 30
0.0
 10
2.915154839677118
 20
2.912410218477526
 30
0.0
 10
2.922292664147689
 20
2.91597798275206
 30
0.0
 10
2.92797367963332
 20
2.922574980844577
 30
0.0
 10
2.935722267407451
 20
2.925673935123453
 30
0.0
 10
2.94241302749909
 20
2.928352162483179
 30
0.0
 10
2.948329650059476
 20
2.928796930940583
 30
0.0
 10
2.954082790159848
 20
2.932787826288088
 30
0.0
 10
2.958213235749175
 20
2.935653577646071
 30
0.0
 10
2.961290552721392
 20
2.939690151916238
 30
0.0
 10
2.965774190204987
 20
2.942132879093126
 30
0.0
  0
POLYLINE
  5
1FC
330
1F
100
AcDbEntity
  8
TSP
370
     0
100
AcDb2dPolyline
 66
     1
 10
0.0
 20
0.0
 30
0.0
  0
VERTEX
  5
1FD
330
1FC
100
AcDbEntity
  8
TSP
370
     0
100
AcDbVertex
100
AcDb2dVertex
 10
2.166840216401422
 20
2.326724688845388
 30
0.0
  0
VERTEX
  5
1FE
330
1FC
100
AcDbEntity
  8
TSP
370
     0
100
AcDbVertex
100
AcDb2dVertex
 10
2.269531242831388
 20
2.373283531797167
 30
0.0
  0
VERTEX
  5
1FF
330
1FC
100
AcDbEntity
  8
TSP
370
     0
100
AcDbVertex
100
AcDb2dVertex
 10
2.266667895627228
 20
2.409696845612466
 30
0.0
  0
VERTEX
  5
200
330
1FC
100
AcDbEntity
  8
TSP
370
     0
100
AcDbVertex
100
AcDb2dVertex
 10
2.132468029182519
 20
2.442378912693281
 30
0.0
  0
VERTEX
  5
201
330
1FC
100
AcDbEntity
  8
TSP
370
     0
100
AcDbVertex
100
AcDb2dVertex
 10
2.132468029182519
 20
2.335014211229868
 30
0.0
  0
VERTEX
  5
202
330
1FC
100
AcDbEntity
  8
TSP
370
     0
100
AcDbVertex
100
AcDb2dVertex
 10
2.166840216401422
 20
2.326724688845388
 30
0.0
  0
SEQEND
  5
204
330
1FC
100
AcDbEntity
  8
TSP
370
     0
  0
HATCH
  5
203
330
1F
100
AcDbEntity
  8
TSP
 62
    43
420
 15510365
100
AcDbHatch
 10
0.0
 20
0.0
 30
0.0
210
0.0
220
0.0
230
1.0
  2
SOLID
 70
     1
 71
     0
 91
        1
 92
        1
 93
        5
 72
     1
 10
2.166840216401422
 20
2.326724688845388
 11
2.269531242831388
 21
2.373283531797167
 72
     1
 10
2.269531242831388
 20
2.373283531797167
 11
2.266667895627228
 21
2.409696845612466
 72
     1
 10
2.266667895627228
 20
2.409696845612466
 11
2.132468029182519
 21
2.442378912693281
 72
     1
 10
2.132468029182519
 20
2.442378912693281
 11
2.132468029182519
 21
2.335014211229868
 72
     1
 10
2.132468029182519
 20
2.335014211229868
 11
2.166840216401422
 21
2.326724688845388
 97
        0
 75
     2
 76
     1
 98
        0
  0
POLYLINE
  5
205
330
1F
100
AcDbEntity
  8
TSP
  6
AI-Linetype-1
 62
   250
420
  2301728
370
    18
100
AcDb2dPolyline
 66
     1
 10
0.0
 20
0.0
 30
0.0
  0
VERTEX
  5
206
330
205
100
AcDbEntity
  8
TSP
  6
AI-Linetype-1
 62
   250
420
  2301728
370
    18
100
AcDbVertex
100
AcDb2dVertex
 10
2.167847646207343
 20
2.325294217320232
 30
0.0
  0
VERTEX
  5
207
330
205
100
AcDbEntity
  8
TSP
  6
AI-Linetype-1
 62
   250
420
  2301728
370
    18
100
AcDbVertex
100
AcDb2dVertex
 10
2.270519350052963
 20
2.371850656118163
 30
0.0
  0
VERTEX
  5
208
330
205
100
AcDbEntity
  8
TSP
  6
AI-Linetype-1
 62
   250
420
  2301728
370
    18
100
AcDbVertex
100
AcDb2dVertex
 10
2.266667895627228
 20
2.409696845612466
 30
0.0
  0
VERTEX
  5
209
330
205
100
AcDbEntity
  8
TSP
  6
AI-Linetype-1
 62
   250
420
  2301728
370
    18
100
AcDbVertex
100
AcDb2dVertex
 10
2.133405649173786
 20
2.441792299160271
 30
0.0
  0
VERTEX
  5
20A
330
205
100
AcDbEntity
  8
TSP
  6
AI-Linetype-1
 62
   250
420
  2301728
370
    18
100
AcDbVertex
100
AcDb2dVertex
 10
2.133405649173786
 20
2.333605377089093
 30
0.0
  0
VERTEX
  5
20B
330
205
100
AcDbEntity
  8
TSP
  6
AI-Linetype-1
 62
   250
420
  2301728
370
    18
100
AcDbVertex
100
AcDb2dVertex
 10
2.167847646207343
 20
2.325294217320232
 30
0.0
  0
SEQEND
  5
20E
330
205
100
AcDbEntity
  8
TSP
  6
AI-Linetype-1
 62
   250
420
  2301728
370
    18
  0
HATCH
  5
20D
330
1F
100
AcDbEntity
  8
TSP
 62
   254
420
 16376262
100
AcDbHatch
 10
0.0
 20
0.0
 30
0.0
210
0.0
220
0.0
230
1.0
  2
SOLID
 70
     1
 71
     0
 91
        1
 92
        1
 93
        5
 72
     1
 10
2.167847646207343
 20
2.325294217320232
 11
2.270519350052963
 21
2.371850656118163
 72
     1
 10
2.270519350052963
 20
2.371850656118163
 11
2.266667895627228
 21
2.409696845612466
 72
     1
 10
2.266667895627228
 20
2.409696845612466
 11
2.133405649173786
 21
2.441792299160271
 72
     1
 10
2.133405649173786
 20
2.441792299160271
 11
2.133405649173786
 21
2.333605377089093
 72
     1
 10
2.133405649173786
 20
2.333605377089093
 11
2.167847646207343
 21
2.325294217320232
 97
        0
 75
     2
 76
     1
 98
        0
  0
SPLINE
  5
20F
330
1F
100
AcDbEntity
  8
TSP
370
     0
100
AcDbSpline
210
0.0
220
0.0
230
1.0
 70
    11
 71
     3
 72
    89
 73
    85
 74
     0
 42
0.0000000001
 43
0.0000000001
 12
1.0
 22
0.0
 32
0.0
 13
1.0
 23
0.0
 33
0.0
 40
0.0
 40
0.0
 40
0.0
 40
0.0
 40
1.0
 40
1.0
 40
1.0
 40
2.0
 40
2.0
 40
2.0
 40
3.0
 40
3.0
 40
3.0
 40
4.0
 40
4.0
 40
4.0
 40
5.0
 40
5.0
 40
5.0
 40
6.0
 40
6.0
 40
6.0
 40
7.0
 40
7.0
 40
7.0
 40
8.0
 40
8.0
 40
8.0
 40
9.0
 40
9.0
 40
9.0
 40
10.0
 40
10.0
 40
10.0
 40
11.0
 40
11.0
 40
11.0
 40
12.0
 40
12.0
 40
12.0
 40
13.0
 40
13.0
 40
13.0
 40
14.0
 40
14.0
 40
14.0
 40
15.0
 40
15.0
 40
15.0
 40
16.0
 40
16.0
 40
16.0
 40
17.0
 40
17.0
 40
17.0
 40
18.0
 40
18.0
 40
18.0
 40
19.0
 40
19.0
 40
19.0
 40
20.0
 40
20.0
 40
20.0
 40
21.0
 40
21.0
 40
21.0
 40
22.0
 40
22.0
 40
22.0
 40
23.0
 40
23.0
 40
23.0
 40
24.0
 40
24.0
 40
24.0
 40
25.0
 40
25.0
 40
25.0
 40
26.0
 40
26.0
 40
26.0
 40
27.0
 40
27.0
 40
27.0
 40
28.0
 40
28.0
 40
28.0
 40
28.0
 10
1.817555132263907
 20
3.560098875225599
 30
0.0
 10
1.852444212554954
 20
3.640921718474235
 30
0.0
 10
1.925109761879412
 20
3.816937032376384
 30
0.0
 10
1.925109761879412
 20
3.816937032376384
 30
0.0
 10
1.925109761879412
 20
3.816937032376384
 30
0.0
 10
1.928559722616582
 20
3.887135919877639
 30
0.0
 10
1.928559722616582
 20
3.887135919877639
 30
0.0
 10
1.928559722616582
 20
3.887135919877639
 30
0.0
 10
1.946944286907208
 20
3.920673865719727
 30
0.0
 10
1.946944286907208
 20
3.920673865719727
 30
0.0
 10
1.946944286907208
 20
3.920673865719727
 30
0.0
 10
2.138149044668151
 20
3.983196290061553
 30
0.0
 10
2.138149044668151
 20
3.983196290061553
 30
0.0
 10
2.138149044668151
 20
3.983196290061553
 30
0.0
 10
2.167167181321474
 20
3.980369005164751
 30
0.0
 10
2.167167181321474
 20
3.980369005164751
 30
0.0
 10
2.167167181321474
 20
3.980369005164751
 30
0.0
 10
2.181842136261972
 20
3.968276111431047
 30
0.0
 10
2.181842136261972
 20
3.968276111431047
 30
0.0
 10
2.181842136261972
 20
3.968276111431047
 30
0.0
 10
2.185527704073871
 20
3.892701535979743
 30
0.0
 10
2.185527704073871
 20
3.892701535979743
 30
0.0
 10
2.185527704073871
 20
3.892701535979743
 30
0.0
 10
1.942506302609596
 20
3.278714422928424
 30
0.0
 10
1.942506302609596
 20
3.278714422928424
 30
0.0
 10
1.942506302609596
 20
3.278714422928424
 30
0.0
 10
2.115093209497874
 20
2.952533141642991
 30
0.0
 10
2.115093209497874
 20
2.952533141642991
 30
0.0
 10
2.115093209497874
 20
2.952533141642991
 30
0.0
 10
2.134651000854521
 20
2.928772889402353
 30
0.0
 10
2.134651000854521
 20
2.891138265444511
 30
0.0
 10
2.134651000854521
 20
2.853503641486693
 30
0.0
 10
2.134651000854521
 20
2.334309794159455
 30
0.0
 10
2.134651000854521
 20
2.334309794159455
 30
0.0
 10
2.134651000854521
 20
2.334309794159455
 30
0.0
 10
2.166698371325816
 20
2.326162116850608
 30
0.0
 10
2.166698371325816
 20
2.326162116850608
 30
0.0
 10
2.166698371325816
 20
2.326162116850608
 30
0.0
 10
2.147469949043044
 20
2.316889295552199
 30
0.0
 10
2.132184339031306
 20
2.319401636298052
 30
0.0
 10
2.132184339031306
 20
2.319401636298052
 30
0.0
 10
2.084784129496534
 20
2.330013571276342
 30
0.0
 10
2.084784129496534
 20
2.330013571276342
 30
0.0
 10
2.084784129496534
 20
2.330013571276342
 30
0.0
 10
2.079006860602577
 20
2.324871086247235
 30
0.0
 10
2.064827161349791
 20
2.327335343916628
 30
0.0
 10
2.046747924594784
 20
2.330482381272001
 30
0.0
 10
2.040174968040497
 20
2.340837071791106
 30
0.0
 10
2.040174968040497
 20
2.340837071791106
 30
0.0
 10
2.040174968040497
 20
2.340837071791106
 30
0.0
 10
1.986598484852038
 20
2.352879478294552
 30
0.0
 10
1.986598484852038
 20
2.352879478294552
 30
0.0
 10
1.986598484852038
 20
2.352879478294552
 30
0.0
 10
1.978426681229924
 20
2.345578063131648
 30
0.0
 10
1.964177261516246
 20
2.348912624485264
 30
0.0
 10
1.949925437648719
 20
2.352268823223312
 30
0.0
 10
1.942530344148458
 20
2.362765358817998
 30
0.0
 10
1.942530344148458
 20
2.362765358817998
 30
0.0
 10
1.942530344148458
 20
2.362765358817998
 30
0.0
 10
1.897264852292134
 20
2.372930121185062
 30
0.0
 10
1.897264852292134
 20
2.372930121185062
 30
0.0
 10
1.897264852292134
 20
2.372930121185062
 30
0.0
 10
1.885078196559258
 20
2.368047284768889
 30
0.0
 10
1.875076916652233
 20
2.370042732442673
 30
0.0
 10
1.858666162650959
 20
2.373235448720657
 30
0.0
 10
1.855379765833959
 20
2.382133314767695
 30
0.0
 10
1.855379765833959
 20
2.382133314767695
 30
0.0
 10
1.855379765833959
 20
2.382133314767695
 30
0.0
 10
1.832381548895303
 20
2.387487272588209
 30
0.0
 10
1.832381548895303
 20
2.387487272588209
 30
0.0
 10
1.832381548895303
 20
2.387487272588209
 30
0.0
 10
1.822534134833
 20
2.399296476170699
 30
0.0
 10
1.822534134833
 20
2.409158315155966
 30
0.0
 10
1.822534134833
 20
2.409158315155966
 30
0.0
 10
1.822534134833
 20
2.961878087556127
 30
0.0
 10
1.822534134833
 20
2.961878087556127
 30
0.0
 10
1.822534134833
 20
2.961878087556127
 30
0.0
 10
1.805277198880175
 20
3.002378462871926
 30
0.0
 10
1.805277198880175
 20
3.002378462871926
 30
0.0
 10
1.805277198880175
 20
3.002378462871926
 30
0.0
 10
1.805277198880175
 20
3.476821390922851
 30
0.0
 10
1.805277198880175
 20
3.519059969453262
 30
0.0
 10
1.805277198880175
 20
3.525868533082277
 30
0.0
 10
1.806885497593839
 20
3.535401002993656
 30
0.0
 10
1.817555132263907
 20
3.560098875225599
 30
0.0
  0
HATCH
  5
210
330
1F
100
AcDbEntity
  8
TSP
 62
   254
420
 13358815
100
AcDbHatch
 10
0.0
 20
0.0
 30
0.0
210
0.0
220
0.0
230
1.0
  2
SOLID
 70
     1
 71
     0
 91
        1
 92
        1
 93
        1
 72
     4
 94
        3
 73
     0
 74
     1
 95
       89
 96
       85
 40
0.0
 40
0.0
 40
0.0
 40
0.0
 40
1.0
 40
1.0
 40
1.0
 40
2.0
 40
2.0
 40
2.0
 40
3.0
 40
3.0
 40
3.0
 40
4.0
 40
4.0
 40
4.0
 40
5.0
 40
5.0
 40
5.0
 40
6.0
 40
6.0
 40
6.0
 40
7.0
 40
7.0
 40
7.0
 40
8.0
 40
8.0
 40
8.0
 40
9.0
 40
9.0
 40
9.0
 40
10.0
 40
10.0
 40
10.0
 40
11.0
 40
11.0
 40
11.0
 40
12.0
 40
12.0
 40
12.0
 40
13.0
 40
13.0
 40
13.0
 40
14.0
 40
14.0
 40
14.0
 40
15.0
 40
15.0
 40
15.0
 40
16.0
 40
16.0
 40
16.0
 40
17.0
 40
17.0
 40
17.0
 40
18.0
 40
18.0
 40
18.0
 40
19.0
 40
19.0
 40
19.0
 40
20.0
 40
20.0
 40
20.0
 40
21.0
 40
21.0
 40
21.0
 40
22.0
 40
22.0
 40
22.0
 40
23.0
 40
23.0
 40
23.0
 40
24.0
 40
24.0
 40
24.0
 40
25.0
 40
25.0
 40
25.0
 40
26.0
 40
26.0
 40
26.0
 40
27.0
 40
27.0
 40
27.0
 40
28.0
 40
28.0
 40
28.0
 40
28.0
 10
1.817555132263907
 20
3.560098875225599
 10
1.852444212554954
 20
3.640921718474235
 10
1.925109761879412
 20
3.816937032376384
 10
1.925109761879412
 20
3.816937032376384
 10
1.925109761879412
 20
3.816937032376384
 10
1.928559722616582
 20
3.887135919877639
 10
1.928559722616582
 20
3.887135919877639
 10
1.928559722616582
 20
3.887135919877639
 10
1.946944286907208
 20
3.920673865719727
 10
1.946944286907208
 20
3.920673865719727
 10
1.946944286907208
 20
3.920673865719727
 10
2.138149044668151
 20
3.983196290061553
 10
2.138149044668151
 20
3.983196290061553
 10
2.138149044668151
 20
3.983196290061553
 10
2.167167181321474
 20
3.980369005164751
 10
2.167167181321474
 20
3.980369005164751
 10
2.167167181321474
 20
3.980369005164751
 10
2.181842136261972
 20
3.968276111431047
 10
2.181842136261972
 20
3.968276111431047
 10
2.181842136261972
 20
3.968276111431047
 10
2.185527704073871
 20
3.892701535979743
 10
2.185527704073871
 20
3.892701535979743
 10
2.185527704073871
 20
3.892701535979743
 10
1.942506302609596
 20
3.278714422928424
 10
1.942506302609596
 20
3.278714422928424
 10
1.942506302609596
 20
3.278714422928424
 10
2.115093209497874
 20
2.952533141642991
 10
2.115093209497874
 20
2.952533141642991
 10
2.115093209497874
 20
2.952533141642991
 10
2.134651000854521
 20
2.928772889402353
 10
2.134651000854521
 20
2.891138265444511
 10
2.134651000854521
 20
2.853503641486693
 10
2.134651000854521
 20
2.334309794159455
 10
2.134651000854521
 20
2.334309794159455
 10
2.134651000854521
 20
2.334309794159455
 10
2.166698371325816
 20
2.326162116850608
 10
2.166698371325816
 20
2.326162116850608
 10
2.166698371325816
 20
2.326162116850608
 10
2.147469949043044
 20
2.316889295552199
 10
2.132184339031306
 20
2.319401636298052
 10
2.132184339031306
 20
2.319401636298052
 10
2.084784129496534
 20
2.330013571276342
 10
2.084784129496534
 20
2.330013571276342
 10
2.084784129496534
 20
2.330013571276342
 10
2.079006860602577
 20
2.324871086247235
 10
2.064827161349791
 20
2.327335343916628
 10
2.046747924594784
 20
2.330482381272001
 10
2.040174968040497
 20
2.340837071791106
 10
2.040174968040497
 20
2.340837071791106
 10
2.040174968040497
 20
2.340837071791106
 10
1.986598484852038
 20
2.352879478294552
 10
1.986598484852038
 20
2.352879478294552
 10
1.986598484852038
 20
2.352879478294552
 10
1.978426681229924
 20
2.345578063131648
 10
1.964177261516246
 20
2.348912624485264
 10
1.949925437648719
 20
2.352268823223312
 10
1.942530344148458
 20
2.362765358817998
 10
1.942530344148458
 20
2.362765358817998
 10
1.942530344148458
 20
2.362765358817998
 10
1.897264852292134
 20
2.372930121185062
 10
1.897264852292134
 20
2.372930121185062
 10
1.897264852292134
 20
2.372930121185062
 10
1.885078196559258
 20
2.368047284768889
 10
1.875076916652233
 20
2.370042732442673
 10
1.858666162650959
 20
2.373235448720657
 10
1.855379765833959
 20
2.382133314767695
 10
1.855379765833959
 20
2.382133314767695
 10
1.855379765833959
 20
2.382133314767695
 10
1.832381548895303
 20
2.387487272588209
 10
1.832381548895303
 20
2.387487272588209
 10
1.832381548895303
 20
2.387487272588209
 10
1.822534134833
 20
2.399296476170699
 10
1.822534134833
 20
2.409158315155966
 10
1.822534134833
 20
2.409158315155966
 10
1.822534134833
 20
2.961878087556127
 10
1.822534134833
 20
2.961878087556127
 10
1.822534134833
 20
2.961878087556127
 10
1.805277198880175
 20
3.002378462871926
 10
1.805277198880175
 20
3.002378462871926
 10
1.805277198880175
 20
3.002378462871926
 10
1.805277198880175
 20
3.476821390922851
 10
1.805277198880175
 20
3.519059969453262
 10
1.805277198880175
 20
3.525868533082277
 10
1.806885497593839
 20
3.535401002993656
 10
1.817555132263907
 20
3.560098875225599
 97
        0
 97
        0
 75
     2
 76
     1
 98
        0
  0
SPLINE
  5
211
330
1F
100
AcDbEntity
  8
TSP
 62
   250
420
  2301728
370
    25
100
AcDbSpline
210
0.0
220
0.0
230
1.0
 70
    11
 71
     3
 72
    89
 73
    85
 74
     0
 42
0.0000000001
 43
0.0000000001
 12
1.0
 22
0.0
 32
0.0
 13
1.0
 23
0.0
 33
0.0
 40
0.0
 40
0.0
 40
0.0
 40
0.0
 40
1.0
 40
1.0
 40
1.0
 40
2.0
 40
2.0
 40
2.0
 40
3.0
 40
3.0
 40
3.0
 40
4.0
 40
4.0
 40
4.0
 40
5.0
 40
5.0
 40
5.0
 40
6.0
 40
6.0
 40
6.0
 40
7.0
 40
7.0
 40
7.0
 40
8.0
 40
8.0
 40
8.0
 40
9.0
 40
9.0
 40
9.0
 40
10.0
 40
10.0
 40
10.0
 40
11.0
 40
11.0
 40
11.0
 40
12.0
 40
12.0
 40
12.0
 40
13.0
 40
13.0
 40
13.0
 40
14.0
 40
14.0
 40
14.0
 40
15.0
 40
15.0
 40
15.0
 40
16.0
 40
16.0
 40
16.0
 40
17.0
 40
17.0
 40
17.0
 40
18.0
 40
18.0
 40
18.0
 40
19.0
 40
19.0
 40
19.0
 40
20.0
 40
20.0
 40
20.0
 40
21.0
 40
21.0
 40
21.0
 40
22.0
 40
22.0
 40
22.0
 40
23.0
 40
23.0
 40
23.0
 40
24.0
 40
24.0
 40
24.0
 40
25.0
 40
25.0
 40
25.0
 40
26.0
 40
26.0
 40
26.0
 40
27.0
 40
27.0
 40
27.0
 40
28.0
 40
28.0
 40
28.0
 40
28.0
 10
1.814927392134501
 20
3.552362308220596
 30
0.0
 10
1.858995531724809
 20
3.655630331568267
 30
0.0
 10
1.925859857872461
 20
3.818122280211519
 30
0.0
 10
1.925859857872461
 20
3.818122280211519
 30
0.0
 10
1.925859857872461
 20
3.818122280211519
 30
0.0
 10
1.929146336149592
 20
3.888616878633103
 30
0.0
 10
1.929146336149592
 20
3.888616878633103
 30
0.0
 10
1.929146336149592
 20
3.888616878633103
 30
0.0
 10
1.949502390413601
 20
3.920558466336161
 30
0.0
 10
1.949502390413601
 20
3.920558466336161
 30
0.0
 10
1.949502390413601
 20
3.920558466336161
 30
0.0
 10
2.138125003129921
 20
3.983525659135403
 30
0.0
 10
2.138125003129921
 20
3.983525659135403
 30
0.0
 10
2.138125003129921
 20
3.983525659135403
 30
0.0
 10
2.166885984653542
 20
3.980650291162141
 30
0.0
 10
2.166885984653542
 20
3.980650291162141
 30
0.0
 10
2.166885984653542
 20
3.980650291162141
 30
0.0
 10
2.181467088265461
 20
3.968042908510117
 30
0.0
 10
2.181467088265461
 20
3.968042908510117
 30
0.0
 10
2.181467088265461
 20
3.968042908510117
 30
0.0
 10
2.184753566542592
 20
3.890658005229511
 30
0.0
 10
2.184753566542592
 20
3.890658005229511
 30
0.0
 10
2.184753566542592
 20
3.890658005229511
 30
0.0
 10
1.942506302609596
 20
3.279466807680617
 30
0.0
 10
1.942506302609596
 20
3.279466807680617
 30
0.0
 10
1.942506302609596
 20
3.279466807680617
 30
0.0
 10
2.036018186079142
 20
3.088601035608829
 30
0.0
 10
2.100841385630373
 20
2.976480917881922
 30
0.0
 10
2.115915430105613
 20
2.950398253047461
 30
0.0
 10
2.134651000854521
 20
2.92818627586933
 30
0.0
 10
2.134651000854521
 20
2.899824473209921
 30
0.0
 10
2.134651000854521
 20
2.859889074042712
 30
0.0
 10
2.134651000854521
 20
2.335319538765462
 30
0.0
 10
2.134651000854521
 20
2.335319538765462
 30
0.0
 10
2.134651000854521
 20
2.335319538765462
 30
0.0
 10
2.166698371325816
 20
2.328133522986112
 30
0.0
 10
2.166698371325816
 20
2.328133522986112
 30
0.0
 10
2.166698371325816
 20
2.328133522986112
 30
0.0
 10
2.147469949043044
 20
2.316889295552199
 30
0.0
 10
2.132184339031306
 20
2.319401636298052
 30
0.0
 10
2.132184339031306
 20
2.319401636298052
 30
0.0
 10
2.084784129496534
 20
2.330013571276342
 30
0.0
 10
2.084784129496534
 20
2.330013571276342
 30
0.0
 10
2.084784129496534
 20
2.330013571276342
 30
0.0
 10
2.079006860602577
 20
2.324871086247235
 30
0.0
 10
2.064827161349791
 20
2.327335343916628
 30
0.0
 10
2.046747924594784
 20
2.330482381272001
 30
0.0
 10
2.040174968040497
 20
2.340837071791106
 30
0.0
 10
2.040174968040497
 20
2.340837071791106
 30
0.0
 10
2.040174968040497
 20
2.340837071791106
 30
0.0
 10
1.986692162076148
 20
2.353302609367498
 30
0.0
 10
1.986692162076148
 20
2.353302609367498
 30
0.0
 10
1.986692162076148
 20
2.353302609367498
 30
0.0
 10
1.975351768489266
 20
2.346563766199425
 30
0.0
 10
1.962133730766002
 20
2.349922369091271
 30
0.0
 10
1.948915693042737
 20
2.353350692444009
 30
0.0
 10
1.942412456949342
 20
2.362294144668542
 30
0.0
 10
1.942412456949342
 20
2.362294144668542
 30
0.0
 10
1.942412456949342
 20
2.362294144668542
 30
0.0
 10
1.897264852292134
 20
2.372930121185062
 30
0.0
 10
1.897264852292134
 20
2.372930121185062
 30
0.0
 10
1.897264852292134
 20
2.372930121185062
 30
0.0
 10
1.885078196559258
 20
2.368047284768889
 30
0.0
 10
1.875076916652233
 20
2.370042732442673
 30
0.0
 10
1.858666162650959
 20
2.373235448720657
 30
0.0
 10
1.855379765833959
 20
2.382133314767695
 30
0.0
 10
1.855379765833959
 20
2.382133314767695
 30
0.0
 10
1.855379765833959
 20
2.382133314767695
 30
0.0
 10
1.832381548895303
 20
2.387487272588209
 30
0.0
 10
1.832381548895303
 20
2.387487272588209
 30
0.0
 10
1.832381548895303
 20
2.387487272588209
 30
0.0
 10
1.822534134833
 20
2.399296476170699
 30
0.0
 10
1.822534134833
 20
2.409158315155966
 30
0.0
 10
1.822534134833
 20
2.409158315155966
 30
0.0
 10
1.822534134833
 20
2.891419551441901
 30
0.0
 10
1.822534134833
 20
2.935793018567867
 30
0.0
 10
1.822534134833
 20
2.980144848309376
 30
0.0
 10
1.805277198880175
 20
2.99993584258694
 30
0.0
 10
1.805277198880175
 20
2.99993584258694
 30
0.0
 10
1.805277198880175
 20
2.99993584258694
 30
0.0
 10
1.805277198880175
 20
3.459799981850324
 30
0.0
 10
1.805277198880175
 20
3.509152572761397
 30
0.0
 10
1.805277198880175
 20
3.520925592820529
 30
0.0
 10
1.808176528197237
 20
3.536574230059677
 30
0.0
 10
1.814927392134501
 20
3.552362308220596
 30
0.0
  0
SPLINE
  5
212
330
1F
100
AcDbEntity
  8
TSP
 62
   250
420
  2301728
370
    18
100
AcDbSpline
210
0.0
220
0.0
230
1.0
 70
     8
 71
     3
 72
    23
 73
    19
 74
     0
 42
0.0000000001
 43
0.0000000001
 12
1.0
 22
0.0
 32
0.0
 13
1.0
 23
0.0
 33
0.0
 40
0.0
 40
0.0
 40
0.0
 40
0.0
 40
1.0
 40
1.0
 40
1.0
 40
2.0
 40
2.0
 40
2.0
 40
3.0
 40
3.0
 40
3.0
 40
4.0
 40
4.0
 40
4.0
 40
5.0
 40
5.0
 40
5.0
 40
6.0
 40
6.0
 40
6.0
 40
6.0
 10
2.137115258523914
 20
2.319190070761579
 30
0.0
 10
2.12042321852525
 20
2.317288385086916
 30
0.0
 10
2.119860734671975
 20
2.338464171966987
 30
0.0
 10
2.119860734671975
 20
2.338464171966987
 30
0.0
 10
2.119860734671975
 20
2.338464171966987
 30
0.0
 10
2.119860734671975
 20
2.855638530082223
 30
0.0
 10
2.119860734671975
 20
2.889400062229899
 30
0.0
 10
2.119860734671975
 20
2.919170699030069
 30
0.0
 10
2.111054231073897
 20
2.928585365404084
 30
0.0
 10
2.09842521103744
 20
2.950044842435356
 30
0.0
 10
2.039424872047473
 20
3.050319803897322
 30
0.0
 10
1.857610739122315
 20
3.402679691150549
 30
0.0
 10
1.857610739122315
 20
3.402679691150549
 30
0.0
 10
1.857610739122315
 20
3.402679691150549
 30
0.0
 10
1.81403545106587
 20
3.486072695469829
 30
0.0
 10
1.81403545106587
 20
3.486072695469829
 30
0.0
 10
1.805019874226597
 20
3.503353632522349
 30
0.0
 10
1.805594466990492
 20
3.519023907145904
 30
0.0
 10
1.805594466990492
 20
3.519023907145904
 30
0.0
  0
POLYLINE
  5
213
330
1F
100
AcDbEntity
  8
TSP
 62
   250
420
  2301728
370
    18
100
AcDb2dPolyline
 66
     1
 10
0.0
 20
0.0
 30
0.0
  0
VERTEX
  5
214
330
213
100
AcDbEntity
  8
TSP
 62
   250
420
  2301728
370
    18
100
AcDbVertex
100
AcDb2dVertex
 10
1.964927357509269
 20
3.913584016093308
 30
0.0
  0
VERTEX
  5
215
330
213
100
AcDbEntity
  8
TSP
 62
   250
420
  2301728
370
    18
100
AcDbVertex
100
AcDb2dVertex
 10
1.948915693042737
 20
3.917668673439948
 30
0.0
  0
SEQEND
  5
216
330
213
100
AcDbEntity
  8
TSP
 62
   250
420
  2301728
370
    18
  0
POLYLINE
  5
217
330
1F
100
AcDbEntity
  8
TSP
 62
   250
420
  2301728
370
    18
100
AcDb2dPolyline
 66
     1
 10
0.0
 20
0.0
 30
0.0
  0
VERTEX
  5
218
330
217
100
AcDbEntity
  8
TSP
 62
   250
420
  2301728
370
    18
100
AcDbVertex
100
AcDb2dVertex
 10
1.944008815088333
 20
3.882899800840101
 30
0.0
  0
VERTEX
  5
219
330
217
100
AcDbEntity
  8
TSP
 62
   250
420
  2301728
370
    18
100
AcDbVertex
100
AcDb2dVertex
 10
1.930134443371167
 20
3.886679130651121
 30
0.0
  0
SEQEND
  5
21A
330
217
100
AcDbEntity
  8
TSP
 62
   250
420
  2301728
370
    18
  0
POLYLINE
  5
21B
330
1F
100
AcDbEntity
  8
TSP
 62
   250
420
  2301728
370
    18
100
AcDb2dPolyline
 66
     1
 10
0.0
 20
0.0
 30
0.0
  0
VERTEX
  5
21C
330
21B
100
AcDbEntity
  8
TSP
 62
   250
420
  2301728
370
    18
100
AcDbVertex
100
AcDb2dVertex
 10
1.938820651136565
 20
3.814871864241745
 30
0.0
  0
VERTEX
  5
21D
330
21B
100
AcDbEntity
  8
TSP
 62
   250
420
  2301728
370
    18
100
AcDbVertex
100
AcDb2dVertex
 10
1.924943875265575
 20
3.818639302317946
 30
0.0
  0
SEQEND
  5
21E
330
21B
100
AcDbEntity
  8
TSP
 62
   250
420
  2301728
370
    18
  0
INSERT
  5
220
330
1F
100
AcDbEntity
  8
TSP
100
AcDbBlockReference
  2
block 3
 10
0.0
 20
0.0
 30
0.0
  0
INSERT
  5
22A
330
1F
100
AcDbEntity
  8
TSP
100
AcDbBlockReference
  2
block 4
 10
0.0
 20
0.0
 30
0.0
  0
INSERT
  5
234
330
1F
100
AcDbEntity
  8
TSP
100
AcDbBlockReference
  2
block 5
 10
0.0
 20
0.0
 30
0.0
  0
INSERT
  5
23E
330
1F
100
AcDbEntity
  8
TSP
100
AcDbBlockReference
  2
block 6
 10
0.0
 20
0.0
 30
0.0
  0
INSERT
  5
244
330
1F
100
AcDbEntity
  8
TSP
100
AcDbBlockReference
  2
block 7
 10
0.0
 20
0.0
 30
0.0
  0
INSERT
  5
24A
330
1F
100
AcDbEntity
  8
TSP
100
AcDbBlockReference
  2
block 8
 10
0.0
 20
0.0
 30
0.0
  0
INSERT
  5
250
330
1F
100
AcDbEntity
  8
TSP
100
AcDbBlockReference
  2
block 9
 10
0.0
 20
0.0
 30
0.0
  0
INSERT
  5
256
330
1F
100
AcDbEntity
  8
TSP
100
AcDbBlockReference
  2
block 10
 10
0.0
 20
0.0
 30
0.0
  0
INSERT
  5
25C
330
1F
100
AcDbEntity
  8
TSP
100
AcDbBlockReference
  2
block 11
 10
0.0
 20
0.0
 30
0.0
  0
INSERT
  5
262
330
1F
100
AcDbEntity
  8
TSP
100
AcDbBlockReference
  2
block 12
 10
0.0
 20
0.0
 30
0.0
  0
INSERT
  5
268
330
1F
100
AcDbEntity
  8
TSP
100
AcDbBlockReference
  2
block 13
 10
0.0
 20
0.0
 30
0.0
  0
INSERT
  5
26E
330
1F
100
AcDbEntity
  8
TSP
100
AcDbBlockReference
  2
block 14
 10
0.0
 20
0.0
 30
0.0
  0
INSERT
  5
274
330
1F
100
AcDbEntity
  8
TSP
100
AcDbBlockReference
  2
block 15
 10
0.0
 20
0.0
 30
0.0
  0
INSERT
  5
27A
330
1F
100
AcDbEntity
  8
TSP
100
AcDbBlockReference
  2
block 16
 10
0.0
 20
0.0
 30
0.0
  0
INSERT
  5
280
330
1F
100
AcDbEntity
  8
TSP
100
AcDbBlockReference
  2
block 17
 10
0.0
 20
0.0
 30
0.0
  0
INSERT
  5
286
330
1F
100
AcDbEntity
  8
TSP
100
AcDbBlockReference
  2
block 18
 10
0.0
 20
0.0
 30
0.0
  0
INSERT
  5
28C
330
1F
100
AcDbEntity
  8
TSP
100
AcDbBlockReference
  2
block 19
 10
0.0
 20
0.0
 30
0.0
  0
INSERT
  5
292
330
1F
100
AcDbEntity
  8
TSP
100
AcDbBlockReference
  2
block 20
 10
0.0
 20
0.0
 30
0.0
  0
SPLINE
  5
297
330
1F
100
AcDbEntity
  8
TSP
 62
   250
420
  2301728
370
    18
100
AcDbSpline
210
0.0
220
0.0
230
1.0
 70
     8
 71
     3
 72
    23
 73
    19
 74
     0
 42
0.0000000001
 43
0.0000000001
 12
1.0
 22
0.0
 32
0.0
 13
1.0
 23
0.0
 33
0.0
 40
0.0
 40
0.0
 40
0.0
 40
0.0
 40
1.0
 40
1.0
 40
1.0
 40
2.0
 40
2.0
 40
2.0
 40
3.0
 40
3.0
 40
3.0
 40
4.0
 40
4.0
 40
4.0
 40
5.0
 40
5.0
 40
5.0
 40
6.0
 40
6.0
 40
6.0
 40
6.0
 10
1.941003622808593
 20
3.280969403820488
 30
0.0
 10
1.941003622808593
 20
3.280969403820488
 30
0.0
 10
1.837947164997407
 20
3.479756862741712
 30
0.0
 10
1.829575901382921
 20
3.494020707378341
 30
0.0
 10
1.823743424206365
 20
3.503973904208894
 30
0.0
 10
1.817134405344733
 20
3.51564378824964
 30
0.0
 10
1.826948161253515
 20
3.5395553808012
 30
0.0
 10
1.840928315738918
 20
3.573598198946254
 30
0.0
 10
1.942999070482352
 20
3.815352695006519
 30
0.0
 10
1.942999070482352
 20
3.815352695006519
 30
0.0
 10
1.942999070482352
 20
3.815352695006519
 30
0.0
 10
1.944008815088333
 20
3.882745934995366
 30
0.0
 10
1.944008815088333
 20
3.882745934995366
 30
0.0
 10
1.944008815088333
 20
3.882745934995366
 30
0.0
 10
1.965187006122227
 20
3.912129503029923
 30
0.0
 10
1.965187006122227
 20
3.912129503029923
 30
0.0
 10
1.965187006122227
 20
3.912129503029923
 30
0.0
 10
2.166979657323206
 20
3.978760626256644
 30
0.0
 10
2.166979657323206
 20
3.978760626256644
 30
0.0
  0
MTEXT
  5
299
330
1F
100
AcDbEntity
  8
callout
 62
   250
420
  2301728
100
AcDbMText
 10
3.35589846306377
 20
3.0749315155877
 30
0.0
 40
0.118
 41
0.0
 46
0.0
 71
     7
 72
     1
  1
\fHelvetica LT Std Condensed|b0|i0|c0|p34;\W1;Top Plate
 73
     1
 44
1.0
  0
MTEXT
  5
29A
330
1F
100
AcDbEntity
  8
callout
 62
   250
420
  2236191
100
AcDbMText
 10
1.158980475531684
 20
1.299600627687242
 30
0.0
 40
0.118
 41
0.0
 46
0.0
 71
     7
 72
     1
  1
\fHelvetica Neue LT Std 55 Roman|b0|i0|c0|p34;\W1;SIMPSON Strong-Tie\H0.068794;®\H0.118; ^C
 73
     1
 44
1.0
  0
MTEXT
  5
29B
330
1F
100
AcDbEntity
  8
callout
 62
   250
420
  2236191
100
AcDbMText
 10
0.5081083509657118
 20
1.099608765708076
 30
0.0
 40
0.118
 41
0.0
 46
0.0
 71
     7
 72
     1
  1
\fHelvetica Neue LT Std 55 Roman|b0|i0|c0|p34;\W1;TSP Truss/Rafter-to-Top Plate Tie Down
 73
     1
 44
1.0
  0
MTEXT
  5
29C
330
1F
100
AcDbEntity
  8
callout
 62
   250
420
  2236191
100
AcDbMText
 10
1.197253439161513
 20
2.018468777338664
 30
0.0
 40
0.118
 41
0.0
 46
0.0
 71
     7
 72
     1
  1
\fHelvetica Neue LT Std 57 Condensed|b0|i0|c0|p34;\W1;TSP
 73
     1
 44
1.0
  0
MTEXT
  5
29D
330
1F
100
AcDbEntity
  8
callout
 62
   250
420
  2236191
100
AcDbMText
 10
3.35589599609375
 20
3.932657347785102
 30
0.0
 40
0.118
 41
0.0
 46
0.0
 71
     7
 72
     1
  1
\fHelvetica Neue LT Std 57 Condensed|b0|i0|c0|p34;\W1;Truss / Rafter
 73
     1
 44
1.0
  0
POLYLINE
  5
29E
330
1F
100
AcDbEntity
  8
callout
 62
   250
420
  2236191
370
    18
100
AcDb2dPolyline
 66
     1
 10
0.0
 20
0.0
 30
0.0
  0
VERTEX
  5
29F
330
29E
100
AcDbEntity
  8
callout
 62
   250
420
  2236191
370
    18
100
AcDbVertex
100
AcDb2dVertex
 10
1.313740023994114
 20
2.197092272443696
 30
0.0
  0
VERTEX
  5
2A0
330
29E
100
AcDbEntity
  8
callout
 62
   250
420
  2236191
370
    18
100
AcDbVertex
100
AcDb2dVertex
 10
1.819236320759425
 20
2.638455021626694
 30
0.0
  0
SEQEND
  5
2A1
330
29E
100
AcDbEntity
  8
callout
 62
   250
420
  2236191
370
    18
  0
POLYLINE
  5
2A2
330
1F
100
AcDbEntity
  8
callout
 62
   250
420
  2236191
370
    18
100
AcDb2dPolyline
 66
     1
 10
0.0
 20
0.0
 30
0.0
  0
VERTEX
  5
2A3
330
2A2
100
AcDbEntity
  8
callout
 62
   250
420
  2236191
370
    18
100
AcDbVertex
100
AcDb2dVertex
 10
3.3084966148474
 20
3.998638404805787
 30
0.0
  0
VERTEX
  5
2A4
330
2A2
100
AcDbEntity
  8
callout
 62
   250
420
  2236191
370
    18
100
AcDbVertex
100
AcDb2dVertex
 10
2.88688878769224
 20
4.138339941259511
 30
0.0
  0
SEQEND
  5
2A5
330
2A2
100
AcDbEntity
  8
callout
 62
   250
420
  2236191
370
    18
  0
POLYLINE
  5
2A6
330
1F
100
AcDbEntity
  8
callout
 62
   250
420
  2236191
370
    18
100
AcDb2dPolyline
 66
     1
 10
0.0
 20
0.0
 30
0.0
  0
VERTEX
  5
2A7
330
2A6
100
AcDbEntity
  8
callout
 62
   250
420
  2236191
370
    18
100
AcDbVertex
100
AcDb2dVertex
 10
3.331560283687951
 20
3.101913436369689
 30
0.0
  0
VERTEX
  5
2A8
330
2A6
100
AcDbEntity
  8
callout
 62
   250
420
  2236191
370
    18
100
AcDbVertex
100
AcDb2dVertex
 10
2.99568426792694
 20
2.794865728685661
 30
0.0
  0
SEQEND
  5
2A9
330
2A6
100
AcDbEntity
  8
callout
 62
   250
420
  2236191
370
    18
  0
ENDSEC
  0
SECTION
  2
OBJECTS
  0
DICTIONARY
  5
C
330
0
100
AcDbDictionary
281
     1
  3
ACAD_GROUP
350
D
  3
ACAD_LAYOUT
350
1A
  3
ACAD_MATERIAL
350
3B
  3
ACAD_MLEADERSTYLE
350
2AB
  3
ACAD_MLINESTYLE
350
17
  3
ACAD_PLOTSETTINGS
350
19
  3
ACAD_PLOTSTYLENAME
350
E
  3
ACAD_TABLESTYLE
350
2AA
  3
ACAD_VISUALSTYLE
350
2A
  0
SUN
  5
3F
330
29
100
AcDbSun
 90
        1
290
     0
 63
     7
421
 16777215
 40
1.0
291
     1
 91
  2455826
 92
 54000000
292
     0
 70
     2
 71
   256
280
     1
  0
DICTIONARY
  5
D
102
{ACAD_REACTORS
330
C
102
}
330
C
100
AcDbDictionary
281
     1
  0
DICTIONARY
  5
1A
102
{ACAD_REACTORS
330
C
102
}
330
C
100
AcDbDictionary
281
     1
  3
Layout1
350
1E
  3
Layout2
350
26
  3
Model
350
22
  0
DICTIONARY
  5
3B
102
{ACAD_REACTORS
330
C
102
}
330
C
100
AcDbDictionary
281
     1
  3
ByBlock
350
3D
  3
ByLayer
350
3C
  3
Global
350
3E
  0
DICTIONARY
  5
2AB
102
{ACAD_REACTORS
330
C
102
}
330
C
100
AcDbDictionary
281
     1
  0
DICTIONARY
  5
17
102
{ACAD_REACTORS
330
C
102
}
330
C
100
AcDbDictionary
281
     1
  3
Standard
350
18
  0
DICTIONARY
  5
19
102
{ACAD_REACTORS
330
C
102
}
330
C
100
AcDbDictionary
281
     1
  0
ACDBDICTIONARYWDFLT
  5
E
102
{ACAD_REACTORS
330
C
102
}
330
C
100
AcDbDictionary
281
     1
  3
Normal
350
F
100
AcDbDictionaryWithDefault
340
F
  0
DICTIONARY
  5
2AA
102
{ACAD_REACTORS
330
C
102
}
330
C
100
AcDbDictionary
281
     1
  0
DICTIONARY
  5
2A
102
{ACAD_REACTORS
330
C
102
}
330
C
100
AcDbDictionary
281
     1
  3
2dWireframe
350
2F
  3
3D Hidden
350
31
  3
3dWireframe
350
30
  3
Basic
350
32
  3
Brighten
350
36
  3
ColorChange
350
3A
  3
Conceptual
350
34
  3
Dim
350
35
  3
Facepattern
350
39
  3
Flat
350
2B
  3
FlatWithEdges
350
2C
  3
Gouraud
350
2D
  3
GouraudWithEdges
350
2E
  3
Linepattern
350
38
  3
Realistic
350
33
  3
Thicken
350
37
  0
LAYOUT
  5
1E
102
{ACAD_REACTORS
330
1A
102
}
330
1A
100
AcDbPlotSettings
  1

  2
none_device
  4

  6

 40
0.0
 41
0.0
 42
0.0
 43
0.0
 44
0.0
 45
0.0
 46
0.0
 47
0.0
 48
0.0
 49
0.0
140
0.0
141
0.0
142
1.0
143
1.0
 70
   688
 72
     0
 73
     0
 74
     5
  7

 75
    16
 76
     0
 77
     2
 78
   300
147
1.0
148
0.0
149
0.0
100
AcDbLayout
  1
Layout1
 70
     1
 71
     1
 10
0.0
 20
0.0
 11
12.0
 21
9.0
 12
0.0
 22
0.0
 32
0.0
 14
1.000000000000000E+20
 24
1.000000000000000E+20
 34
1.000000000000000E+20
 15
-1.000000000000000E+20
 25
-1.000000000000000E+20
 35
-1.000000000000000E+20
146
0.0
 13
0.0
 23
0.0
 33
0.0
 16
1.0
 26
0.0
 36
0.0
 17
0.0
 27
1.0
 37
0.0
 76
     0
330
1B
  0
LAYOUT
  5
26
102
{ACAD_REACTORS
330
1A
102
}
330
1A
100
AcDbPlotSettings
  1

  2
none_device
  4

  6

 40
0.0
 41
0.0
 42
0.0
 43
0.0
 44
0.0
 45
0.0
 46
0.0
 47
0.0
 48
0.0
 49
0.0
140
0.0
141
0.0
142
1.0
143
1.0
 70
   688
 72
     0
 73
     0
 74
     5
  7

 75
    16
 76
     0
 77
     2
 78
   300
147
1.0
148
0.0
149
0.0
100
AcDbLayout
  1
Layout2
 70
     1
 71
     2
 10
0.0
 20
0.0
 11
0.0
 21
0.0
 12
0.0
 22
0.0
 32
0.0
 14
0.0
 24
0.0
 34
0.0
 15
0.0
 25
0.0
 35
0.0
146
0.0
 13
0.0
 23
0.0
 33
0.0
 16
1.0
 26
0.0
 36
0.0
 17
0.0
 27
1.0
 37
0.0
 76
     0
330
23
  0
LAYOUT
  5
22
102
{ACAD_REACTORS
330
1A
102
}
330
1A
100
AcDbPlotSettings
  1

  2
none_device
  4

  6

 40
0.0
 41
0.0
 42
0.0
 43
0.0
 44
0.0
 45
0.0
 46
0.0
 47
0.0
 48
0.0
 49
0.0
140
0.0
141
0.0
142
1.0
143
1.0
 70
  1712
 72
     0
 73
     0
 74
     0
  7

 75
     0
 76
     0
 77
     2
 78
   300
147
1.0
148
0.0
149
0.0
100
AcDbLayout
  1
Model
 70
     1
 71
     0
 10
0.0
 20
0.0
 11
12.0
 21
9.0
 12
0.0
 22
0.0
 32
0.0
 14
1.000000000000000E+20
 24
1.000000000000000E+20
 34
1.000000000000000E+20
 15
-1.000000000000000E+20
 25
-1.000000000000000E+20
 35
-1.000000000000000E+20
146
0.0
 13
0.0
 23
0.0
 33
0.0
 16
1.0
 26
0.0
 36
0.0
 17
0.0
 27
1.0
 37
0.0
 76
     0
330
1F
331
29
  0
MATERIAL
  5
3D
102
{ACAD_REACTORS
330
3B
102
}
330
3B
100
AcDbMaterial
  1
ByBlock
 72
     1
 94
      127
  0
MATERIAL
  5
3C
102
{ACAD_REACTORS
330
3B
102
}
330
3B
100
AcDbMaterial
  1
ByLayer
 72
     1
 94
      127
  0
MATERIAL
  5
3E
102
{ACAD_REACTORS
330
3B
102
}
330
3B
100
AcDbMaterial
  1
Global
 72
     1
 94
      127
  0
MLINESTYLE
  5
18
102
{ACAD_REACTORS
330
17
102
}
330
17
100
AcDbMlineStyle
  2
Standard
 70
     0
  3

 62
   256
 51
90.0
 52
90.0
 71
     2
 49
0.5
 62
   256
  6
BYLAYER
 49
-0.5
 62
   256
  6
BYLAYER
  0
ACDBPLACEHOLDER
  5
F
102
{ACAD_REACTORS
330
E
102
}
330
E
  0
VISUALSTYLE
  5
2F
102
{ACAD_REACTORS
330
2A
102
}
330
2A
100
AcDbVisualStyle
  2
2dWireframe
 70
     4
177
     2
291
     0
 71
     0
176
     1
 72
     2
176
     1
 73
     0
176
     1
 90
        0
176
     1
 40
-0.6
176
     1
 41
-30.0
176
     1
 62
     5
 63
     7
421
 16777215
176
     1
 74
     1
176
     1
 91
        4
176
     1
 64
     7
176
     1
 65
   257
176
     1
 75
     1
176
     1
175
     1
176
     1
 42
1.0
176
     1
 92
        0
176
     1
 66
   257
176
     1
 43
1.0
176
     1
 76
     1
176
     1
 77
     6
176
     1
 78
     2
176
     1
 67
     7
176
     1
 79
     5
176
     1
170
     0
176
     1
171
     0
176
     1
290
     0
176
     1
 93
        1
176
     1
 44
0.0
176
     1
173
     0
176
     1
  0
VISUALSTYLE
  5
31
102
{ACAD_REACTORS
330
2A
102
}
330
2A
100
AcDbVisualStyle
  2
3D Hidden
 70
     6
177
     2
291
     0
 71
     1
176
     1
 72
     2
176
     1
 73
     2
176
     1
 90
        0
176
     1
 40
-0.6
176
     1
 41
-30.0
176
     1
 62
     5
 63
     7
421
 16777215
176
     1
 74
     2
176
     1
 91
        2
176
     1
 64
     7
176
     1
 65
   257
176
     1
 75
     2
176
     1
175
     1
176
     1
 42
40.0
176
     1
 92
        0
176
     1
 66
   257
176
     1
 43
1.0
176
     1
 76
     1
176
     1
 77
     6
176
     1
 78
     2
176
     1
 67
     7
176
     1
 79
     3
176
     1
170
     0
176
     1
171
     0
176
     1
290
     0
176
     1
 93
        1
176
     1
 44
0.0
176
     1
173
     0
176
     1
  0
VISUALSTYLE
  5
30
102
{ACAD_REACTORS
330
2A
102
}
330
2A
100
AcDbVisualStyle
  2
3dWireframe
 70
     5
177
     2
291
     0
 71
     0
176
     1
 72
     2
176
     1
 73
     0
176
     1
 90
        0
176
     1
 40
-0.6
176
     1
 41
-30.0
176
     1
 62
     5
 63
     7
421
 16777215
176
     1
 74
     1
176
     1
 91
        4
176
     1
 64
     7
176
     1
 65
   257
176
     1
 75
     1
176
     1
175
     1
176
     1
 42
1.0
176
     1
 92
        0
176
     1
 66
   257
176
     1
 43
1.0
176
     1
 76
     1
176
     1
 77
     6
176
     1
 78
     2
176
     1
 67
     7
176
     1
 79
     5
176
     1
170
     0
176
     1
171
     0
176
     1
290
     0
176
     1
 93
        1
176
     1
 44
0.0
176
     1
173
     0
176
     1
  0
VISUALSTYLE
  5
32
102
{ACAD_REACTORS
330
2A
102
}
330
2A
100
AcDbVisualStyle
  2
Basic
 70
     7
177
     2
291
     1
 71
     1
176
     1
 72
     0
176
     1
 73
     1
176
     1
 90
        0
176
     1
 40
-0.6
176
     1
 41
-30.0
176
     1
 62
     5
 63
     7
421
 16777215
176
     1
 74
     0
176
     1
 91
        4
176
     1
 64
     7
176
     1
 65
   257
176
     1
 75
     1
176
     1
175
     1
176
     1
 42
1.0
176
     1
 92
        8
176
     1
 66
     7
176
     1
 43
1.0
176
     1
 76
     1
176
     1
 77
     6
176
     1
 78
     2
176
     1
 67
     7
176
     1
 79
     5
176
     1
170
     0
176
     1
171
     0
176
     1
290
     0
176
     1
 93
        1
176
     1
 44
0.0
176
     1
173
     0
176
     1
  0
VISUALSTYLE
  5
36
102
{ACAD_REACTORS
330
2A
102
}
330
2A
100
AcDbVisualStyle
  2
Brighten
 70
    12
177
     2
291
     1
 71
     2
176
     1
 72
     2
176
     1
 73
     0
176
     1
 90
        0
176
     1
 40
-0.6
176
     1
 41
-30.0
176
     1
 62
     5
 63
     7
421
 16777215
176
     1
 74
     1
176
     1
 91
        4
176
     1
 64
     7
176
     1
 65
   257
176
     1
 75
     1
176
     1
175
     1
176
     1
 42
1.0
176
     1
 92
        8
176
     1
 66
     7
176
     1
 43
1.0
176
     1
 76
     1
176
     1
 77
     6
176
     1
 78
     2
176
     1
 67
     7
176
     1
 79
     5
176
     1
170
     0
176
     1
171
     0
176
     1
290
     0
176
     1
 93
        1
176
     1
 44
50.0
176
     1
173
     0
176
     1
  0
VISUALSTYLE
  5
3A
102
{ACAD_REACTORS
330
2A
102
}
330
2A
100
AcDbVisualStyle
  2
ColorChange
 70
    16
177
     2
291
     1
 71
     2
176
     1
 72
     2
176
     1
 73
     3
176
     1
 90
        0
176
     1
 40
-0.6
176
     1
 41
-30.0
176
     1
 62
     5
 63
     8
421
  8421504
176
     1
 74
     1
176
     1
 91
        4
176
     1
 64
     7
176
     1
 65
   257
176
     1
 75
     1
176
     1
175
     1
176
     1
 42
1.0
176
     1
 92
        8
176
     1
 66
     8
424
  8421504
176
     1
 43
1.0
176
     1
 76
     1
176
     1
 77
     6
176
     1
 78
     2
176
     1
 67
     7
176
     1
 79
     5
176
     1
170
     0
176
     1
171
     0
176
     1
290
     0
176
     1
 93
        1
176
     1
 44
0.0
176
     1
173
     0
176
     1
  0
VISUALSTYLE
  5
34
102
{ACAD_REACTORS
330
2A
102
}
330
2A
100
AcDbVisualStyle
  2
Conceptual
 70
     9
177
     2
291
     0
 71
     3
176
     1
 72
     2
176
     1
 73
     0
176
     1
 90
        0
176
     1
 40
-0.6
176
     1
 41
-30.0
176
     1
 62
     5
 63
     7
421
 16777215
176
     1
 74
     2
176
     1
 91
        2
176
     1
 64
     7
176
     1
 65
   257
176
     1
 75
     1
176
     1
175
     1
176
     1
 42
40.0
176
     1
 92
        8
176
     1
 66
     7
176
     1
 43
1.0
176
     1
 76
     1
176
     1
 77
     6
176
     1
 78
     2
176
     1
 67
     7
176
     1
 79
     3
176
     1
170
     0
176
     1
171
     0
176
     1
290
     0
176
     1
 93
        1
176
     1
 44
0.0
176
     1
173
     0
176
     1
  0
VISUALSTYLE
  5
35
102
{ACAD_REACTORS
330
2A
102
}
330
2A
100
AcDbVisualStyle
  2
Dim
 70
    11
177
     2
291
     1
 71
     2
176
     1
 72
     2
176
     1
 73
     0
176
     1
 90
        0
176
     1
 40
-0.6
176
     1
 41
-30.0
176
     1
 62
     5
 63
     7
421
 16777215
176
     1
 74
     1
176
     1
 91
        4
176
     1
 64
     7
176
     1
 65
   257
176
     1
 75
     1
176
     1
175
     1
176
     1
 42
1.0
176
     1
 92
        8
176
     1
 66
     7
176
     1
 43
1.0
176
     1
 76
     1
176
     1
 77
     6
176
     1
 78
     2
176
     1
 67
     7
176
     1
 79
     5
176
     1
170
     0
176
     1
171
     0
176
     1
290
     0
176
     1
 93
        1
176
     1
 44
-50.0
176
     1
173
     0
176
     1
  0
VISUALSTYLE
  5
39
102
{ACAD_REACTORS
330
2A
102
}
330
2A
100
AcDbVisualStyle
  2
Facepattern
 70
    15
177
     2
291
     1
 71
     2
176
     1
 72
     2
176
     1
 73
     0
176
     1
 90
        0
176
     1
 40
-0.6
176
     1
 41
-30.0
176
     1
 62
     5
 63
     7
421
 16777215
176
     1
 74
     1
176
     1
 91
        4
176
     1
 64
     7
176
     1
 65
   257
176
     1
 75
     1
176
     1
175
     1
176
     1
 42
1.0
176
     1
 92
        8
176
     1
 66
     7
176
     1
 43
1.0
176
     1
 76
     1
176
     1
 77
     6
176
     1
 78
     2
176
     1
 67
     7
176
     1
 79
     5
176
     1
170
     0
176
     1
171
     0
176
     1
290
     0
176
     1
 93
        1
176
     1
 44
0.0
176
     1
173
     0
176
     1
  0
VISUALSTYLE
  5
2B
102
{ACAD_REACTORS
330
2A
102
}
330
2A
100
AcDbVisualStyle
  2
Flat
 70
     0
177
     2
291
     1
 71
     2
176
     1
 72
     1
176
     1
 73
     1
176
     1
 90
        2
176
     1
 40
-0.6
176
     1
 41
30.0
176
     1
 62
     5
 63
     7
421
 16777215
176
     1
 74
     0
176
     1
 91
        4
176
     1
 64
     7
176
     1
 65
   257
176
     1
 75
     1
176
     1
175
     1
176
     1
 42
1.0
176
     1
 92
        8
176
     1
 66
     7
176
     1
 43
1.0
176
     1
 76
     1
176
     1
 77
     6
176
     1
 78
     2
176
     1
 67
     7
176
     1
 79
     5
176
     1
170
     0
176
     1
171
     0
176
     1
290
     0
176
     1
 93
       13
176
     1
 44
0.0
176
     1
173
     0
176
     1
  0
VISUALSTYLE
  5
2C
102
{ACAD_REACTORS
330
2A
102
}
330
2A
100
AcDbVisualStyle
  2
FlatWithEdges
 70
     1
177
     2
291
     1
 71
     2
176
     1
 72
     1
176
     1
 73
     1
176
     1
 90
        2
176
     1
 40
-0.6
176
     1
 41
30.0
176
     1
 62
     5
 63
     7
421
 16777215
176
     1
 74
     1
176
     1
 91
        4
176
     1
 64
     7
176
     1
 65
   257
176
     1
 75
     1
176
     1
175
     1
176
     1
 42
1.0
176
     1
 92
        0
176
     1
 66
   257
176
     1
 43
1.0
176
     1
 76
     1
176
     1
 77
     6
176
     1
 78
     2
176
     1
 67
     7
176
     1
 79
     5
176
     1
170
     0
176
     1
171
     0
176
     1
290
     0
176
     1
 93
       13
176
     1
 44
0.0
176
     1
173
     0
176
     1
  0
VISUALSTYLE
  5
2D
102
{ACAD_REACTORS
330
2A
102
}
330
2A
100
AcDbVisualStyle
  2
Gouraud
 70
     2
177
     2
291
     1
 71
     2
176
     1
 72
     2
176
     1
 73
     1
176
     1
 90
        2
176
     1
 40
-0.6
176
     1
 41
30.0
176
     1
 62
     5
 63
     7
421
 16777215
176
     1
 74
     0
176
     1
 91
        4
176
     1
 64
     7
176
     1
 65
   257
176
     1
 75
     1
176
     1
175
     1
176
     1
 42
1.0
176
     1
 92
        0
176
     1
 66
     7
176
     1
 43
1.0
176
     1
 76
     1
176
     1
 77
     6
176
     1
 78
     2
176
     1
 67
     7
176
     1
 79
     5
176
     1
170
     0
176
     1
171
     0
176
     1
290
     0
176
     1
 93
       13
176
     1
 44
0.0
176
     1
173
     0
176
     1
  0
VISUALSTYLE
  5
2E
102
{ACAD_REACTORS
330
2A
102
}
330
2A
100
AcDbVisualStyle
  2
GouraudWithEdges
 70
     3
177
     2
291
     1
 71
     2
176
     1
 72
     2
176
     1
 73
     1
176
     1
 90
        2
176
     1
 40
-0.6
176
     1
 41
30.0
176
     1
 62
     5
 63
     7
421
 16777215
176
     1
 74
     1
176
     1
 91
        4
176
     1
 64
     7
176
     1
 65
   257
176
     1
 75
     1
176
     1
175
     1
176
     1
 42
1.0
176
     1
 92
        0
176
     1
 66
   257
176
     1
 43
1.0
176
     1
 76
     1
176
     1
 77
     6
176
     1
 78
     2
176
     1
 67
     7
176
     1
 79
     5
176
     1
170
     0
176
     1
171
     0
176
     1
290
     0
176
     1
 93
       13
176
     1
 44
0.0
176
     1
173
     0
176
     1
  0
VISUALSTYLE
  5
38
102
{ACAD_REACTORS
330
2A
102
}
330
2A
100
AcDbVisualStyle
  2
Linepattern
 70
    14
177
     2
291
     1
 71
     2
176
     1
 72
     2
176
     1
 73
     0
176
     1
 90
        0
176
     1
 40
-0.6
176
     1
 41
-30.0
176
     1
 62
     5
 63
     7
421
 16777215
176
     1
 74
     1
176
     1
 91
        4
176
     1
 64
     7
176
     1
 65
   257
176
     1
 75
     7
176
     1
175
     7
176
     1
 42
1.0
176
     1
 92
        8
176
     1
 66
     7
176
     1
 43
1.0
176
     1
 76
     1
176
     1
 77
     6
176
     1
 78
     2
176
     1
 67
     7
176
     1
 79
     5
176
     1
170
     0
176
     1
171
     0
176
     1
290
     0
176
     1
 93
        1
176
     1
 44
0.0
176
     1
173
     0
176
     1
  0
VISUALSTYLE
  5
33
102
{ACAD_REACTORS
330
2A
102
}
330
2A
100
AcDbVisualStyle
  2
Realistic
 70
     8
177
     2
291
     0
 71
     2
176
     1
 72
     2
176
     1
 73
     0
176
     1
 90
        0
176
     1
 40
-0.6
176
     1
 41
-30.0
176
     1
 62
     5
 63
     7
421
 16777215
176
     1
 74
     1
176
     1
 91
        0
176
     1
 64
     7
176
     1
 65
   257
176
     1
 75
     1
176
     1
175
     1
176
     1
 42
1.0
176
     1
 92
        8
176
     1
 66
     8
424
  7895160
176
     1
 43
1.0
176
     1
 76
     1
176
     1
 77
     6
176
     1
 78
     2
176
     1
 67
     7
176
     1
 79
     5
176
     1
170
     0
176
     1
171
     0
176
     1
290
     0
176
     1
 93
       13
176
     1
 44
0.0
176
     1
173
     0
176
     1
  0
VISUALSTYLE
  5
37
102
{ACAD_REACTORS
330
2A
102
}
330
2A
100
AcDbVisualStyle
  2
Thicken
 70
    13
177
     2
291
     1
 71
     2
176
     1
 72
     2
176
     1
 73
     0
176
     1
 90
        0
176
     1
 40
-0.6
176
     1
 41
-30.0
176
     1
 62
     5
 63
     7
421
 16777215
176
     1
 74
     1
176
     1
 91
        4
176
     1
 64
     7
176
     1
 65
   257
176
     1
 75
     1
176
     1
175
     1
176
     1
 42
1.0
176
     1
 92
       12
176
     1
 66
     7
176
     1
 43
1.0
176
     1
 76
     1
176
     1
 77
     6
176
     1
 78
     2
176
     1
 67
     7
176
     1
 79
     5
176
     1
170
     0
176
     1
171
     0
176
     1
290
     0
176
     1
 93
        1
176
     1
 44
0.0
176
     1
173
     0
176
     1
  0
ENDSEC
  0
EOF
