  0
SECTION
  2
HEADER
  9
$ACADVER
  1
AC1024
  9
$ACADMAINTVER
 70
     6
  9
$DWGCODEPAGE
  3
ANSI_1252
  9
$INSBASE
 10
0.0
 20
0.0
 30
0.0
  9
$EXTMIN
 10
1.000000000000000E+20
 20
1.000000000000000E+20
 30
1.000000000000000E+20
  9
$EXTMAX
 10
-1.000000000000000E+20
 20
-1.000000000000000E+20
 30
-1.000000000000000E+20
  9
$LIMMIN
 10
0.0
 20
0.0
  9
$LIMMAX
 10
12.0
 20
9.0
  9
$ORTHOMODE
 70
     0
  9
$REGENMODE
 70
     1
  9
$FILLMODE
 70
     1
  9
$QTEXTMODE
 70
     0
  9
$MIRRTEXT
 70
     1
  9
$LTSCALE
 40
1.0
  9
$ATTMODE
 70
     1
  9
$TEXTSIZE
 40
0.2
  9
$TRACEWID
 40
0.05
  9
$TEXTSTYLE
  7
Standard
  9
$CLAYER
  8
0
  9
$CELTYPE
  6
ByLayer
  9
$CECOLOR
 62
   256
  9
$CELTSCALE
 40
1.0
  9
$DISPSILH
 70
     0
  9
$DIMSCALE
 40
1.0
  9
$DIMASZ
 40
0.18
  9
$DIMEXO
 40
0.0625
  9
$DIMDLI
 40
0.38
  9
$DIMRND
 40
0.0
  9
$DIMDLE
 40
0.0
  9
$DIMEXE
 40
0.18
  9
$DIMTP
 40
0.0
  9
$DIMTM
 40
0.0
  9
$DIMTXT
 40
0.18
  9
$DIMCEN
 40
0.09
  9
$DIMTSZ
 40
0.0
  9
$DIMTOL
 70
     0
  9
$DIMLIM
 70
     0
  9
$DIMTIH
 70
     1
  9
$DIMTOH
 70
     1
  9
$DIMSE1
 70
     0
  9
$DIMSE2
 70
     0
  9
$DIMTAD
 70
     0
  9
$DIMZIN
 70
     0
  9
$DIMBLK
  1

  9
$DIMASO
 70
     1
  9
$DIMSHO
 70
     1
  9
$DIMPOST
  1

  9
$DIMAPOST
  1

  9
$DIMALT
 70
     0
  9
$DIMALTD
 70
     2
  9
$DIMALTF
 40
25.4
  9
$DIMLFAC
 40
1.0
  9
$DIMTOFL
 70
     0
  9
$DIMTVP
 40
0.0
  9
$DIMTIX
 70
     0
  9
$DIMSOXD
 70
     0
  9
$DIMSAH
 70
     0
  9
$DIMBLK1
  1

  9
$DIMBLK2
  1

  9
$DIMSTYLE
  2
Standard
  9
$DIMCLRD
 70
     0
  9
$DIMCLRE
 70
     0
  9
$DIMCLRT
 70
     0
  9
$DIMTFAC
 40
1.0
  9
$DIMGAP
 40
0.09
  9
$DIMJUST
 70
     0
  9
$DIMSD1
 70
     0
  9
$DIMSD2
 70
     0
  9
$DIMTOLJ
 70
     1
  9
$DIMTZIN
 70
     0
  9
$DIMALTZ
 70
     0
  9
$DIMALTTZ
 70
     0
  9
$DIMUPT
 70
     0
  9
$DIMDEC
 70
     4
  9
$DIMTDEC
 70
     4
  9
$DIMALTU
 70
     2
  9
$DIMALTTD
 70
     2
  9
$DIMTXSTY
  7
Standard
  9
$DIMAUNIT
 70
     0
  9
$DIMADEC
 70
     0
  9
$DIMALTRND
 40
0.0
  9
$DIMAZIN
 70
     0
  9
$DIMDSEP
 70
    46
  9
$DIMATFIT
 70
     3
  9
$DIMFRAC
 70
     0
  9
$DIMLDRBLK
  1

  9
$DIMLUNIT
 70
     2
  9
$DIMLWD
 70
    -2
  9
$DIMLWE
 70
    -2
  9
$DIMTMOVE
 70
     0
  9
$DIMFXL
 40
1.0
  9
$DIMFXLON
 70
     0
  9
$DIMJOGANG
 40
0.7853981633974483
  9
$DIMTFILL
 70
     0
  9
$DIMTFILLCLR
 70
     0
  9
$DIMARCSYM
 70
     0
  9
$DIMLTYPE
  6

  9
$DIMLTEX1
  6

  9
$DIMLTEX2
  6

  9
$DIMTXTDIRECTION
 70
     0
  9
$LUNITS
 70
     2
  9
$LUPREC
 70
     4
  9
$SKETCHINC
 40
0.1
  9
$FILLETRAD
 40
0.5
  9
$AUNITS
 70
     0
  9
$AUPREC
 70
     0
  9
$MENU
  1
.
  9
$ELEVATION
 40
0.0
  9
$PELEVATION
 40
0.0
  9
$THICKNESS
 40
0.0
  9
$LIMCHECK
 70
     0
  9
$CHAMFERA
 40
0.5
  9
$CHAMFERB
 40
0.5
  9
$CHAMFERC
 40
1.0
  9
$CHAMFERD
 40
0.0
  9
$SKPOLY
 70
     0
  9
$TDCREATE
 40
2458788.000745798
  9
$TDUCREATE
 40
2458787.459079132
  9
$TDUPDATE
 40
2458788.000745949
  9
$TDUUPDATE
 40
2458787.459079282
  9
$TDINDWG
 40
0.0000000116
  9
$TDUSRTIMER
 40
0.0000000116
  9
$USRTIMER
 70
     1
  9
$ANGBASE
 50
0.0
  9
$ANGDIR
 70
     0
  9
$PDMODE
 70
     0
  9
$PDSIZE
 40
0.0
  9
$PLINEWID
 40
0.0
  9
$SPLFRAME
 70
     0
  9
$SPLINETYPE
 70
     6
  9
$SPLINESEGS
 70
     8
  9
$HANDSEED
  5
11A
  9
$SURFTAB1
 70
     6
  9
$SURFTAB2
 70
     6
  9
$SURFTYPE
 70
     6
  9
$SURFU
 70
     6
  9
$SURFV
 70
     6
  9
$UCSBASE
  2

  9
$UCSNAME
  2

  9
$UCSORG
 10
0.0
 20
0.0
 30
0.0
  9
$UCSXDIR
 10
1.0
 20
0.0
 30
0.0
  9
$UCSYDIR
 10
0.0
 20
1.0
 30
0.0
  9
$UCSORTHOREF
  2

  9
$UCSORTHOVIEW
 70
     0
  9
$UCSORGTOP
 10
0.0
 20
0.0
 30
0.0
  9
$UCSORGBOTTOM
 10
0.0
 20
0.0
 30
0.0
  9
$UCSORGLEFT
 10
0.0
 20
0.0
 30
0.0
  9
$UCSORGRIGHT
 10
0.0
 20
0.0
 30
0.0
  9
$UCSORGFRONT
 10
0.0
 20
0.0
 30
0.0
  9
$UCSORGBACK
 10
0.0
 20
0.0
 30
0.0
  9
$PUCSBASE
  2

  9
$PUCSNAME
  2

  9
$PUCSORG
 10
0.0
 20
0.0
 30
0.0
  9
$PUCSXDIR
 10
1.0
 20
0.0
 30
0.0
  9
$PUCSYDIR
 10
0.0
 20
1.0
 30
0.0
  9
$PUCSORTHOREF
  2

  9
$PUCSORTHOVIEW
 70
     0
  9
$PUCSORGTOP
 10
0.0
 20
0.0
 30
0.0
  9
$PUCSORGBOTTOM
 10
0.0
 20
0.0
 30
0.0
  9
$PUCSORGLEFT
 10
0.0
 20
0.0
 30
0.0
  9
$PUCSORGRIGHT
 10
0.0
 20
0.0
 30
0.0
  9
$PUCSORGFRONT
 10
0.0
 20
0.0
 30
0.0
  9
$PUCSORGBACK
 10
0.0
 20
0.0
 30
0.0
  9
$USERI1
 70
     0
  9
$USERI2
 70
     0
  9
$USERI3
 70
     0
  9
$USERI4
 70
     0
  9
$USERI5
 70
     0
  9
$USERR1
 40
0.0
  9
$USERR2
 40
0.0
  9
$USERR3
 40
0.0
  9
$USERR4
 40
0.0
  9
$USERR5
 40
0.0
  9
$WORLDVIEW
 70
     1
  9
$SHADEDGE
 70
     3
  9
$SHADEDIF
 70
    70
  9
$TILEMODE
 70
     1
  9
$MAXACTVP
 70
    64
  9
$PINSBASE
 10
0.0
 20
0.0
 30
0.0
  9
$PLIMCHECK
 70
     0
  9
$PEXTMIN
 10
1.000000000000000E+20
 20
1.000000000000000E+20
 30
1.000000000000000E+20
  9
$PEXTMAX
 10
-1.000000000000000E+20
 20
-1.000000000000000E+20
 30
-1.000000000000000E+20
  9
$PLIMMIN
 10
0.0
 20
0.0
  9
$PLIMMAX
 10
12.0
 20
9.0
  9
$UNITMODE
 70
     0
  9
$VISRETAIN
 70
     1
  9
$PLINEGEN
 70
     0
  9
$PSLTSCALE
 70
     1
  9
$TREEDEPTH
 70
  3020
  9
$CMLSTYLE
  2
Standard
  9
$CMLJUST
 70
     0
  9
$CMLSCALE
 40
1.0
  9
$PROXYGRAPHICS
 70
     1
  9
$MEASUREMENT
 70
     0
  9
$CELWEIGHT
370
    -1
  9
$ENDCAPS
280
     0
  9
$JOINSTYLE
280
     0
  9
$LWDISPLAY
290
     1
  9
$INSUNITS
 70
     0
  9
$HYPERLINKBASE
  1

  9
$STYLESHEET
  1

  9
$XEDIT
290
     1
  9
$CEPSNTYPE
380
     0
  9
$PSTYLEMODE
290
     1
  9
$FINGERPRINTGUID
  2
{FBAF4810-94A2-4530-B151-F24706ACD72C}
  9
$VERSIONGUID
  2
{FAEB1C32-E019-11D5-929B-00C0DF256EC4}
  9
$EXTNAMES
290
     1
  9
$PSVPSCALE
 40
0.0
  9
$OLESTARTUP
290
     0
  9
$SORTENTS
280
   127
  9
$INDEXCTL
280
     0
  9
$HIDETEXT
280
     1
  9
$XCLIPFRAME
280
     2
  9
$HALOGAP
280
     0
  9
$OBSCOLOR
 70
   257
  9
$OBSLTYPE
280
     0
  9
$INTERSECTIONDISPLAY
280
     0
  9
$INTERSECTIONCOLOR
 70
   257
  9
$DIMASSOC
280
     2
  9
$PROJECTNAME
  1

  9
$CAMERADISPLAY
290
     0
  9
$LENSLENGTH
 40
50.0
  9
$CAMERAHEIGHT
 40
0.0
  9
$STEPSPERSEC
 40
2.0
  9
$STEPSIZE
 40
6.0
  9
$3DDWFPREC
 40
2.0
  9
$PSOLWIDTH
 40
0.25
  9
$PSOLHEIGHT
 40
4.0
  9
$LOFTANG1
 40
1.570796326794897
  9
$LOFTANG2
 40
1.570796326794897
  9
$LOFTMAG1
 40
0.0
  9
$LOFTMAG2
 40
0.0
  9
$LOFTPARAM
 70
     7
  9
$LOFTNORMALS
280
     1
  9
$LATITUDE
 40
37.795
  9
$LONGITUDE
 40
-122.394
  9
$NORTHDIRECTION
 40
0.0
  9
$TIMEZONE
 70
 -8000
  9
$LIGHTGLYPHDISPLAY
280
     1
  9
$TILEMODELIGHTSYNCH
280
     1
  9
$CMATERIAL
347
3C
  9
$SOLIDHIST
280
     1
  9
$SHOWHIST
280
     1
  9
$DWFFRAME
280
     2
  9
$DGNFRAME
280
     2
  9
$REALWORLDSCALE
290
     1
  9
$INTERFERECOLOR
 62
   256
  9
$CSHADOW
280
     0
  9
$SHADOWPLANELOCATION
 40
0.0
  0
ENDSEC
  0
SECTION
  2
CLASSES
  0
CLASS
  1
ACDBDICTIONARYWDFLT
  2
AcDbDictionaryWithDefault
  3
ObjectDBX Classes
 90
        0
 91
        4
280
     0
281
     0
  0
CLASS
  1
VISUALSTYLE
  2
AcDbVisualStyle
  3
ObjectDBX Classes
 90
     4095
 91
        4
280
     0
281
     0
  0
CLASS
  1
MATERIAL
  2
AcDbMaterial
  3
ObjectDBX Classes
 90
     1153
 91
        4
280
     0
281
     0
  0
CLASS
  1
SUN
  2
AcDbSun
  3
SCENEOE
 90
     1024
 91
        4
280
     0
281
     0
  0
ENDSEC
  0
SECTION
  2
TABLES
  0
TABLE
  2
VPORT
  5
8
330
0
100
AcDbSymbolTable
 70
     1
  0
VPORT
  5
29
330
8
100
AcDbSymbolTableRecord
100
AcDbViewportTableRecord
  2
*Active
 70
     0
 10
0.0
 20
0.0
 11
1.0
 21
1.0
 12
0.0
 22
0.0
 13
0.0
 23
0.0
 14
0.5
 24
0.5
 15
0.5
 25
0.5
 16
0.0
 26
0.0
 36
1.0
 17
306.5
 27
395.5
 37
0.0
 40
841.8897637795271
 41
0.7070707070707065
 42
50.0
 43
0.0
 44
0.0
 50
0.0
 51
0.0
 71
     0
 72
   100
 73
     1
 74
     3
 75
     0
 76
     0
 77
     0
 78
     0
281
     0
 65
     1
110
0.0
120
0.0
130
0.0
111
1.0
121
0.0
131
0.0
112
0.0
122
1.0
132
0.0
 79
     0
146
0.0
 60
     3
 61
     5
292
     1
282
     1
141
0.0
142
0.0
 63
   250
361
3F
  0
ENDTAB
  0
TABLE
  2
LTYPE
  5
5
330
0
100
AcDbSymbolTable
 70
     5
  0
LTYPE
  5
14
330
5
100
AcDbSymbolTableRecord
100
AcDbLinetypeTableRecord
  2
ByBlock
 70
     0
  3

 72
    65
 73
     0
 40
0.0
  0
LTYPE
  5
15
330
5
100
AcDbSymbolTableRecord
100
AcDbLinetypeTableRecord
  2
ByLayer
 70
     0
  3

 72
    65
 73
     0
 40
0.0
  0
LTYPE
  5
16
330
5
100
AcDbSymbolTableRecord
100
AcDbLinetypeTableRecord
  2
Continuous
 70
     0
  3
Solid line
 72
    65
 73
     0
 40
0.0
  0
LTYPE
  5
BE
330
5
100
AcDbSymbolTableRecord
100
AcDbLinetypeTableRecord
  2
AI-Linetype-1
 70
     0
  3
Adobe Illustrator Linetype No. 1
 72
    65
 73
     2
 40
6.115696430206299
 49
3.057848215103149
 74
     0
 49
-3.057848215103149
 74
     0
  0
LTYPE
  5
C8
330
5
100
AcDbSymbolTableRecord
100
AcDbLinetypeTableRecord
  2
AI-Linetype-2
 70
     0
  3
Adobe Illustrator Linetype No. 2
 72
    65
 73
     2
 40
6.115696430206299
 49
3.057848215103149
 74
     0
 49
-3.057848215103149
 74
     0
  0
LTYPE
  5
D2
330
5
100
AcDbSymbolTableRecord
100
AcDbLinetypeTableRecord
  2
AI-Linetype-3
 70
     0
  3
Adobe Illustrator Linetype No. 3
 72
    65
 73
     2
 40
6.115696430206299
 49
3.057848215103149
 74
     0
 49
-3.057848215103149
 74
     0
  0
LTYPE
  5
EC
330
5
100
AcDbSymbolTableRecord
100
AcDbLinetypeTableRecord
  2
AI-Linetype-4
 70
     0
  3
Adobe Illustrator Linetype No. 4
 72
    65
 73
     2
 40
5.096413612365723
 49
3.057848215103149
 74
     0
 49
-2.038565397262573
 74
     0
  0
ENDTAB
  0
TABLE
  2
LAYER
  5
2
330
0
100
AcDbSymbolTable
 70
     3
  0
LAYER
  5
10
330
2
100
AcDbSymbolTableRecord
100
AcDbLayerTableRecord
  2
0
 70
     0
 62
     7
  6
Continuous
370
    -3
390
F
347
3E
  0
LAYER
  5
40
330
2
100
AcDbSymbolTableRecord
100
AcDbLayerTableRecord
  2
Layer 1
 70
     0
 62
     7
  6
Continuous
370
    -3
390
F
347
3E
  0
LAYER
  5
FD
330
2
100
AcDbSymbolTableRecord
100
AcDbLayerTableRecord
  2
callout
 70
     0
 62
     7
  6
Continuous
370
    -3
390
F
347
3E
  0
ENDTAB
  0
TABLE
  2
STYLE
  5
3
330
0
100
AcDbSymbolTable
 70
     1
  0
STYLE
  5
11
330
3
100
AcDbSymbolTableRecord
100
AcDbTextStyleTableRecord
  2
Standard
 70
     0
 40
0.0
 41
1.0
 50
0.0
 71
     0
 42
0.2
  3
txt
  4

  0
ENDTAB
  0
TABLE
  2
VIEW
  5
6
330
0
100
AcDbSymbolTable
 70
     0
  0
ENDTAB
  0
TABLE
  2
UCS
  5
7
330
0
100
AcDbSymbolTable
 70
     0
  0
ENDTAB
  0
TABLE
  2
APPID
  5
9
330
0
100
AcDbSymbolTable
 70
     1
  0
APPID
  5
12
330
9
100
AcDbSymbolTableRecord
100
AcDbRegAppTableRecord
  2
ACAD
 70
     0
  0
ENDTAB
  0
TABLE
  2
DIMSTYLE
  5
A
330
0
100
AcDbSymbolTable
 70
     1
100
AcDbDimStyleTable
  0
DIMSTYLE
105
27
330
A
100
AcDbSymbolTableRecord
100
AcDbDimStyleTableRecord
  2
Standard
 70
     0
178
     0
340
11
  0
ENDTAB
  0
TABLE
  2
BLOCK_RECORD
  5
1
330
0
100
AcDbSymbolTable
 70
     1
  0
BLOCK_RECORD
  5
1F
330
1
100
AcDbSymbolTableRecord
100
AcDbBlockTableRecord
  2
*Model_Space
340
22
 70
     0
280
     1
281
     0
  0
BLOCK_RECORD
  5
1B
330
1
100
AcDbSymbolTableRecord
100
AcDbBlockTableRecord
  2
*Paper_Space
340
1E
 70
     0
280
     1
281
     0
  0
BLOCK_RECORD
  5
23
330
1
100
AcDbSymbolTableRecord
100
AcDbBlockTableRecord
  2
*Paper_Space0
340
26
 70
     0
280
     1
281
     0
  0
ENDTAB
  0
ENDSEC
  0
SECTION
  2
BLOCKS
  0
BLOCK
  5
20
330
1F
100
AcDbEntity
  8
0
100
AcDbBlockBegin
  2
*Model_Space
 70
     0
 10
0.0
 20
0.0
 30
0.0
  3
*Model_Space
  1

  0
ENDBLK
  5
21
330
1F
100
AcDbEntity
  8
0
100
AcDbBlockEnd
  0
BLOCK
  5
1C
330
1B
100
AcDbEntity
 67
     1
  8
0
100
AcDbBlockBegin
  2
*Paper_Space
 70
     0
 10
0.0
 20
0.0
 30
0.0
  3
*Paper_Space
  1

  0
ENDBLK
  5
1D
330
1B
100
AcDbEntity
 67
     1
  8
0
100
AcDbBlockEnd
  0
BLOCK
  5
24
330
23
100
AcDbEntity
  8
0
100
AcDbBlockBegin
  2
*Paper_Space0
 70
     0
 10
0.0
 20
0.0
 30
0.0
  3
*Paper_Space0
  1

  0
ENDBLK
  5
25
330
23
100
AcDbEntity
  8
0
100
AcDbBlockEnd
  0
ENDSEC
  0
SECTION
  2
ENTITIES
  0
POLYLINE
  5
41
330
1F
100
AcDbEntity
  8
Layer 1
 62
     7
420
 16777215
370
    40
100
AcDb2dPolyline
 66
     1
 10
0.0
 20
0.0
 30
0.0
  0
VERTEX
  5
42
330
41
100
AcDbEntity
  8
Layer 1
 62
     7
420
 16777215
370
    40
100
AcDbVertex
100
AcDb2dVertex
 10
277.5368471426646
 20
270.9999999999982
 30
0.0
  0
VERTEX
  5
43
330
41
100
AcDbEntity
  8
Layer 1
 62
     7
420
 16777215
370
    40
100
AcDbVertex
100
AcDb2dVertex
 10
277.213326809815
 20
306.0040030455057
 30
0.0
  0
VERTEX
  5
44
330
41
100
AcDbEntity
  8
Layer 1
 62
     7
420
 16777215
370
    40
100
AcDbVertex
100
AcDb2dVertex
 10
278.0205987178697
 20
306.6490051457804
 30
0.0
  0
VERTEX
  5
45
330
41
100
AcDbEntity
  8
Layer 1
 62
     7
420
 16777215
370
    40
100
AcDbVertex
100
AcDb2dVertex
 10
277.213326809815
 20
307.455257771122
 30
0.0
  0
VERTEX
  5
46
330
41
100
AcDbEntity
  8
Layer 1
 62
     7
420
 16777215
370
    40
100
AcDbVertex
100
AcDb2dVertex
 10
277.0520762847464
 20
342.4592608166295
 30
0.0
  0
VERTEX
  5
47
330
41
100
AcDbEntity
  8
Layer 1
 62
     7
420
 16777215
370
    40
100
AcDbVertex
100
AcDb2dVertex
 10
409.000465799787
 20
342.7002192497912
 30
0.0
  0
VERTEX
  5
48
330
41
100
AcDbEntity
  8
Layer 1
 62
     7
420
 16777215
370
    40
100
AcDbVertex
100
AcDb2dVertex
 10
409.0801737078782
 20
307.6962162042837
 30
0.0
  0
VERTEX
  5
49
330
41
100
AcDbEntity
  8
Layer 1
 62
     7
420
 16777215
370
    40
100
AcDbVertex
100
AcDb2dVertex
 10
408.2757557914192
 20
306.8102556708473
 30
0.0
  0
VERTEX
  5
4A
330
41
100
AcDbEntity
  8
Layer 1
 62
     7
420
 16777215
370
    40
100
AcDbVertex
100
AcDb2dVertex
 10
409.1617163248538
 20
305.7612099034613
 30
0.0
  0
VERTEX
  5
4B
330
41
100
AcDbEntity
  8
Layer 1
 62
     7
420
 16777215
370
    40
100
AcDbVertex
100
AcDb2dVertex
 10
409.1617163248538
 20
271.4040609962503
 30
0.0
  0
VERTEX
  5
4C
330
41
100
AcDbEntity
  8
Layer 1
 62
     7
420
 16777215
370
    40
100
AcDbVertex
100
AcDb2dVertex
 10
277.5368471426646
 20
270.9999999999982
 30
0.0
  0
SEQEND
  5
4E
330
41
100
AcDbEntity
  8
Layer 1
 62
     7
420
 16777215
370
    40
  0
HATCH
  5
4D
330
1F
100
AcDbEntity
  8
Layer 1
 62
    43
420
 15510365
100
AcDbHatch
 10
0.0
 20
0.0
 30
0.0
210
0.0
220
0.0
230
1.0
  2
SOLID
 70
     1
 71
     0
 91
        1
 92
        1
 93
       10
 72
     1
 10
277.5368471426646
 20
270.9999999999982
 11
277.213326809815
 21
306.0040030455057
 72
     1
 10
277.213326809815
 20
306.0040030455057
 11
278.0205987178697
 21
306.6490051457804
 72
     1
 10
278.0205987178697
 20
306.6490051457804
 11
277.213326809815
 21
307.455257771122
 72
     1
 10
277.213326809815
 20
307.455257771122
 11
277.0520762847464
 21
342.4592608166295
 72
     1
 10
277.0520762847464
 20
342.4592608166295
 11
409.000465799787
 21
342.7002192497912
 72
     1
 10
409.000465799787
 20
342.7002192497912
 11
409.0801737078782
 21
307.6962162042837
 72
     1
 10
409.0801737078782
 20
307.6962162042837
 11
408.2757557914192
 21
306.8102556708473
 72
     1
 10
408.2757557914192
 20
306.8102556708473
 11
409.1617163248538
 21
305.7612099034613
 72
     1
 10
409.1617163248538
 20
305.7612099034613
 11
409.1617163248538
 21
271.4040609962503
 72
     1
 10
409.1617163248538
 20
271.4040609962503
 11
277.5368471426646
 21
270.9999999999982
 97
        0
 75
     2
 76
     1
 98
        0
  0
POLYLINE
  5
4F
330
1F
100
AcDbEntity
  8
Layer 1
370
     0
100
AcDb2dPolyline
 66
     1
 10
0.0
 20
0.0
 30
0.0
  0
VERTEX
  5
50
330
4F
100
AcDbEntity
  8
Layer 1
370
     0
100
AcDbVertex
100
AcDb2dVertex
 10
208.2555896254435
 20
408.3514033158172
 30
0.0
  0
VERTEX
  5
51
330
4F
100
AcDbEntity
  8
Layer 1
370
     0
100
AcDbVertex
100
AcDb2dVertex
 10
208.9005917257164
 20
307.2145031945038
 30
0.0
  0
VERTEX
  5
52
330
4F
100
AcDbEntity
  8
Layer 1
370
     0
100
AcDbVertex
100
AcDb2dVertex
 10
421.9842928442122
 20
429.8855853197256
 30
0.0
  0
VERTEX
  5
53
330
4F
100
AcDbEntity
  8
Layer 1
370
     0
100
AcDbVertex
100
AcDb2dVertex
 10
403.597470113602
 20
465.2928166061747
 30
0.0
  0
VERTEX
  5
54
330
4F
100
AcDbEntity
  8
Layer 1
370
     0
100
AcDbVertex
100
AcDb2dVertex
 10
399.4028997817986
 20
465.615317656313
 30
0.0
  0
VERTEX
  5
55
330
4F
100
AcDbEntity
  8
Layer 1
370
     0
100
AcDbVertex
100
AcDb2dVertex
 10
402.5484062316191
 20
474.1646533330813
 30
0.0
  0
VERTEX
  5
56
330
4F
100
AcDbEntity
  8
Layer 1
370
     0
100
AcDbVertex
100
AcDb2dVertex
 10
398.0311491077337
 20
475.6966352495047
 30
0.0
  0
VERTEX
  5
57
330
4F
100
AcDbEntity
  8
Layer 1
370
     0
100
AcDbVertex
100
AcDb2dVertex
 10
381.0935244227203
 20
508.0388834203968
 30
0.0
  0
VERTEX
  5
58
330
4F
100
AcDbEntity
  8
Layer 1
370
     0
100
AcDbVertex
100
AcDb2dVertex
 10
208.2555896254435
 20
408.3514033158172
 30
0.0
  0
SEQEND
  5
5A
330
4F
100
AcDbEntity
  8
Layer 1
370
     0
  0
HATCH
  5
59
330
1F
100
AcDbEntity
  8
Layer 1
 62
    43
420
 15510365
100
AcDbHatch
 10
0.0
 20
0.0
 30
0.0
210
0.0
220
0.0
230
1.0
  2
SOLID
 70
     1
 71
     0
 91
        1
 92
        1
 93
        8
 72
     1
 10
208.2555896254435
 20
408.3514033158172
 11
208.9005917257164
 21
307.2145031945038
 72
     1
 10
208.9005917257164
 20
307.2145031945038
 11
421.9842928442122
 21
429.8855853197256
 72
     1
 10
421.9842928442122
 20
429.8855853197256
 11
403.597470113602
 21
465.2928166061747
 72
     1
 10
403.597470113602
 20
465.2928166061747
 11
399.4028997817986
 21
465.615317656313
 72
     1
 10
399.4028997817986
 20
465.615317656313
 11
402.5484062316191
 21
474.1646533330813
 72
     1
 10
402.5484062316191
 20
474.1646533330813
 11
398.0311491077337
 21
475.6966352495047
 72
     1
 10
398.0311491077337
 20
475.6966352495047
 11
381.0935244227203
 21
508.0388834203968
 72
     1
 10
381.0935244227203
 20
508.0388834203968
 11
208.2555896254435
 21
408.3514033158172
 97
        0
 75
     2
 76
     1
 98
        0
  0
POLYLINE
  5
5B
330
1F
100
AcDbEntity
  8
Layer 1
 62
     7
420
 16777215
370
    40
100
AcDb2dPolyline
 66
     1
 10
0.0
 20
0.0
 30
0.0
  0
VERTEX
  5
5C
330
5B
100
AcDbEntity
  8
Layer 1
 62
     7
420
 16777215
370
    40
100
AcDbVertex
100
AcDb2dVertex
 10
270.9225177667176
 20
444.4959837162651
 30
0.0
  0
VERTEX
  5
5D
330
5B
100
AcDbEntity
  8
Layer 1
 62
     7
420
 16777215
370
    40
100
AcDbVertex
100
AcDb2dVertex
 10
208.2555896254435
 20
408.3514033158172
 30
0.0
  0
VERTEX
  5
5E
330
5B
100
AcDbEntity
  8
Layer 1
 62
     7
420
 16777215
370
    40
100
AcDbVertex
100
AcDb2dVertex
 10
208.9005917257164
 20
307.2145031945038
 30
0.0
  0
VERTEX
  5
5F
330
5B
100
AcDbEntity
  8
Layer 1
 62
     7
420
 16777215
370
    40
100
AcDbVertex
100
AcDb2dVertex
 10
421.9842928442122
 20
429.8855853197256
 30
0.0
  0
VERTEX
  5
60
330
5B
100
AcDbEntity
  8
Layer 1
 62
     7
420
 16777215
370
    40
100
AcDbVertex
100
AcDb2dVertex
 10
403.597470113602
 20
465.2928166061747
 30
0.0
  0
VERTEX
  5
61
330
5B
100
AcDbEntity
  8
Layer 1
 62
     7
420
 16777215
370
    40
100
AcDbVertex
100
AcDb2dVertex
 10
399.4028997817986
 20
465.615317656313
 30
0.0
  0
VERTEX
  5
62
330
5B
100
AcDbEntity
  8
Layer 1
 62
     7
420
 16777215
370
    40
100
AcDbVertex
100
AcDb2dVertex
 10
402.5484062316191
 20
474.1646533330813
 30
0.0
  0
VERTEX
  5
63
330
5B
100
AcDbEntity
  8
Layer 1
 62
     7
420
 16777215
370
    40
100
AcDbVertex
100
AcDb2dVertex
 10
398.0311491077337
 20
475.6966352495047
 30
0.0
  0
VERTEX
  5
64
330
5B
100
AcDbEntity
  8
Layer 1
 62
     7
420
 16777215
370
    40
100
AcDbVertex
100
AcDb2dVertex
 10
381.0935244227203
 20
508.0388834203968
 30
0.0
  0
VERTEX
  5
65
330
5B
100
AcDbEntity
  8
Layer 1
 62
     7
420
 16777215
370
    40
100
AcDbVertex
100
AcDb2dVertex
 10
274.9250371209473
 20
446.8034359201229
 30
0.0
  0
SEQEND
  5
66
330
5B
100
AcDbEntity
  8
Layer 1
 62
     7
420
 16777215
370
    40
  0
SPLINE
  5
67
330
1F
100
AcDbEntity
  8
Layer 1
 62
     7
420
 16777215
370
    18
100
AcDbSpline
210
0.0
220
0.0
230
1.0
 70
     8
 71
     3
 72
    20
 73
    16
 74
     0
 42
0.0000000001
 43
0.0000000001
 12
1.0
 22
0.0
 32
0.0
 13
1.0
 23
0.0
 33
0.0
 40
0.0
 40
0.0
 40
0.0
 40
0.0
 40
1.0
 40
1.0
 40
1.0
 40
2.0
 40
2.0
 40
2.0
 40
3.0
 40
3.0
 40
3.0
 40
4.0
 40
4.0
 40
4.0
 40
5.0
 40
5.0
 40
5.0
 40
5.0
 10
409.1617163248538
 20
301.0031982029559
 30
0.0
 10
407.5492110741689
 20
300.3581961026812
 30
0.0
 10
402.3871557065504
 20
301.1644487280246
 30
0.0
 10
399.3211533082813
 20
301.1644487280246
 30
0.0
 10
396.2573933319782
 20
301.1644487280246
 30
0.0
 10
380.9343124630759
 20
302.2932024035035
 30
0.0
 10
375.9335076205261
 20
302.1319518784348
 30
0.0
 10
370.9327027779764
 20
301.970701353368
 30
0.0
 10
361.7391804271028
 20
302.2932024035035
 30
0.0
 10
356.4158745344157
 20
303.260723687823
 30
0.0
 10
351.0923647851869
 20
304.2282087043259
 30
0.0
 10
348.6715683437324
 20
304.2282087043259
 30
0.0
 10
343.6707635011844
 20
304.3914977948189
 30
0.0
 10
338.6719972240589
 20
304.5507097544632
 30
0.0
 10
329.6376868328298
 20
306.326504095643
 30
0.0
 10
327.2189289568014
 20
306.6490051457804
 30
0.0
  0
SPLINE
  5
68
330
1F
100
AcDbEntity
  8
Layer 1
 62
     7
420
 16777215
370
    18
100
AcDbSpline
210
0.0
220
0.0
230
1.0
 70
     8
 71
     3
 72
    23
 73
    19
 74
     0
 42
0.0000000001
 43
0.0000000001
 12
1.0
 22
0.0
 32
0.0
 13
1.0
 23
0.0
 33
0.0
 40
0.0
 40
0.0
 40
0.0
 40
0.0
 40
1.0
 40
1.0
 40
1.0
 40
2.0
 40
2.0
 40
2.0
 40
3.0
 40
3.0
 40
3.0
 40
4.0
 40
4.0
 40
4.0
 40
5.0
 40
5.0
 40
5.0
 40
6.0
 40
6.0
 40
6.0
 40
6.0
 10
408.8392152747165
 20
289.7113804607652
 30
0.0
 10
396.9023954322529
 20
290.3563825610399
 30
0.0
 10
391.2586270548545
 20
290.5176508980985
 30
0.0
 10
384.6430745396519
 20
291.0013846613147
 30
0.0
 10
378.0297819151201
 20
291.4871748019432
 30
0.0
 10
362.3841825273776
 20
293.9040979690908
 30
0.0
 10
353.9950949544982
 20
294.8734358283837
 30
0.0
 10
345.6078083674311
 20
295.8411428353375
 30
0.0
 10
329.1539352576237
 20
297.6148986110911
 30
0.0
 10
323.3489163551567
 20
298.2599007113658
 30
0.0
 10
317.5398203218392
 20
298.9049028116406
 30
0.0
 10
308.9913000712386
 20
300.1949070121882
 30
0.0
 10
306.0877713372929
 20
300.3581961026812
 30
0.0
 10
303.1842426033463
 20
300.5194466277499
 30
0.0
 10
299.3130068624459
 20
301.0031982029559
 30
0.0
 10
293.0221978193495
 20
301.6482183964035
 30
0.0
 10
286.7313887762512
 20
302.2932024035035
 30
0.0
 10
279.1493523933495
 20
303.7464956945441
 30
0.0
 10
277.213326809815
 20
304.3914977948189
 30
0.0
  0
SPLINE
  5
69
330
1F
100
AcDbEntity
  8
Layer 1
 62
     7
420
 16777215
370
    18
100
AcDbSpline
210
0.0
220
0.0
230
1.0
 70
     8
 71
     3
 72
    26
 73
    22
 74
     0
 42
0.0000000001
 43
0.0000000001
 12
1.0
 22
0.0
 32
0.0
 13
1.0
 23
0.0
 33
0.0
 40
0.0
 40
0.0
 40
0.0
 40
0.0
 40
1.0
 40
1.0
 40
1.0
 40
2.0
 40
2.0
 40
2.0
 40
3.0
 40
3.0
 40
3.0
 40
4.0
 40
4.0
 40
4.0
 40
5.0
 40
5.0
 40
5.0
 40
6.0
 40
6.0
 40
6.0
 40
7.0
 40
7.0
 40
7.0
 40
7.0
 10
277.375611543559
 20
298.423207813561
 30
0.0
 10
280.4403758766121
 20
298.9049028116406
 30
0.0
 10
290.4411701355393
 20
296.8086639566609
 30
0.0
 10
294.9572041201718
 20
296.1636438854748
 30
0.0
 10
299.4742573875155
 20
295.5184379286584
 30
0.0
 10
307.0552744877041
 20
294.3896842531776
 30
0.0
 10
314.4758564889944
 20
293.5816148083468
 30
0.0
 10
321.8956230641143
 20
292.7771790024926
 30
0.0
 10
328.1864321072117
 20
291.8096758520805
 30
0.0
 10
332.7016506656746
 20
290.840134136246
 30
0.0
 10
337.2207424984426
 20
289.8726309858339
 30
0.0
 10
340.76825404995
 20
289.3888794106297
 30
0.0
 10
347.5428146682552
 20
289.0663783604923
 30
0.0
 10
354.3175791431004
 20
288.7438773103549
 30
0.0
 10
357.2221441028159
 20
288.4213762602158
 30
0.0
 10
365.1254414535415
 20
287.2906017497789
 30
0.0
 10
373.0309981692917
 20
286.1638689092579
 30
0.0
 10
372.5452080286614
 20
286.0005798187649
 30
0.0
 10
379.8035202221708
 20
285.6780964583613
 30
0.0
 10
387.0620362722238
 20
285.3555777184902
 30
0.0
 10
405.9346672580596
 20
283.2593208925991
 30
0.0
 10
408.6779647496496
 20
283.4205714176678
 30
0.0
  0
SPLINE
  5
6A
330
1F
100
AcDbEntity
  8
Layer 1
 62
     7
420
 16777215
370
    18
100
AcDbSpline
210
0.0
220
0.0
230
1.0
 70
     8
 71
     3
 72
    23
 73
    19
 74
     0
 42
0.0000000001
 43
0.0000000001
 12
1.0
 22
0.0
 32
0.0
 13
1.0
 23
0.0
 33
0.0
 40
0.0
 40
0.0
 40
0.0
 40
0.0
 40
1.0
 40
1.0
 40
1.0
 40
2.0
 40
2.0
 40
2.0
 40
3.0
 40
3.0
 40
3.0
 40
4.0
 40
4.0
 40
4.0
 40
5.0
 40
5.0
 40
5.0
 40
6.0
 40
6.0
 40
6.0
 40
6.0
 10
408.6779647496496
 20
277.4520595681643
 30
0.0
 10
403.6771599070998
 20
277.9358111433703
 30
0.0
 10
388.9990811384705
 20
277.4520595681643
 30
0.0
 10
383.8368219143103
 20
279.064768675391
 30
0.0
 10
378.6768051121162
 20
280.6772739260778
 30
0.0
 10
370.7714522529077
 20
281.6468156419141
 30
0.0
 10
367.3849873699255
 20
281.3222760263525
 30
0.0
 10
363.9966877780626
 20
280.9997749762151
 30
0.0
 10
350.7698637350495
 20
283.0980703675305
 30
0.0
 10
345.6078083674311
 20
284.3880745680799
 30
0.0
 10
340.4457529998144
 20
285.6780964583613
 30
0.0
 10
327.5414300069388
 20
287.1313720596681
 30
0.0
 10
322.7018756894577
 20
287.2906017497789
 30
0.0
 10
317.8623213719766
 20
287.4538731098055
 30
0.0
 10
309.9588032216507
 20
288.7438773103549
 30
0.0
 10
305.7652702871565
 20
289.5501299356965
 30
0.0
 10
301.5707180699492
 20
290.3563825610399
 30
0.0
 10
279.4718534434869
 20
292.936390962137
 30
0.0
 10
277.375611543559
 20
293.4221811027674
 30
0.0
  0
SPLINE
  5
6B
330
1F
100
AcDbEntity
  8
Layer 1
 62
     7
420
 16777215
370
    18
100
AcDbSpline
210
0.0
220
0.0
230
1.0
 70
     8
 71
     3
 72
    29
 73
    25
 74
     0
 42
0.0000000001
 43
0.0000000001
 12
1.0
 22
0.0
 32
0.0
 13
1.0
 23
0.0
 33
0.0
 40
0.0
 40
0.0
 40
0.0
 40
0.0
 40
1.0
 40
1.0
 40
1.0
 40
2.0
 40
2.0
 40
2.0
 40
3.0
 40
3.0
 40
3.0
 40
4.0
 40
4.0
 40
4.0
 40
5.0
 40
5.0
 40
5.0
 40
6.0
 40
6.0
 40
6.0
 40
7.0
 40
7.0
 40
7.0
 40
8.0
 40
8.0
 40
8.0
 40
8.0
 10
277.213326809815
 20
286.9680829691752
 30
0.0
 10
280.1168555437616
 20
285.8413678591205
 30
0.0
 10
288.3438940269371
 20
283.9043229928739
 30
0.0
 10
291.7311896247038
 20
283.4205714176678
 30
0.0
 10
295.1184546452414
 20
282.9368198424618
 30
0.0
 10
307.8625463957578
 20
280.9997749762151
 30
0.0
 10
310.1200537467193
 20
280.9997749762151
 30
0.0
 10
312.3795996631034
 20
280.9997749762151
 30
0.0
 10
324.6389205557043
 20
279.872856009617
 30
0.0
 10
328.6701836824177
 20
279.5503549594796
 30
0.0
 10
332.7016506656746
 20
279.2278539093422
 30
0.0
 10
343.0257614009097
 20
278.5828518090693
 30
0.0
 10
348.0265662434595
 20
278.0972655249807
 30
0.0
 10
353.0275749425527
 20
277.6133100932329
 30
0.0
 10
357.3833776848278
 20
276.6458069428209
 30
0.0
 10
362.2208934368846
 20
276.000804842548
 30
0.0
 10
367.0624863197881
 20
275.3537641768489
 30
0.0
 10
368.0299894702002
 20
277.1295585180287
 30
0.0
 10
372.0614564534571
 20
275.8395543174775
 30
0.0
 10
376.0947581455948
 20
274.5495675255315
 30
0.0
 10
384.9657794463328
 20
272.9370622341139
 30
0.0
 10
388.0295394226341
 20
273.2595459163822
 30
0.0
 10
391.0953379643597
 20
273.5820469665196
 30
0.0
 10
398.353650157871
 20
272.2920427659719
 30
0.0
 10
399.6436543584186
 20
271.8062526253416
 30
0.0
  0
SPLINE
  5
6C
330
1F
100
AcDbEntity
  8
Layer 1
 62
     7
420
 16777215
370
    18
100
AcDbSpline
210
0.0
220
0.0
230
1.0
 70
     8
 71
     3
 72
    17
 73
    13
 74
     0
 42
0.0000000001
 43
0.0000000001
 12
1.0
 22
0.0
 32
0.0
 13
1.0
 23
0.0
 33
0.0
 40
0.0
 40
0.0
 40
0.0
 40
0.0
 40
1.0
 40
1.0
 40
1.0
 40
2.0
 40
2.0
 40
2.0
 40
3.0
 40
3.0
 40
3.0
 40
4.0
 40
4.0
 40
4.0
 40
4.0
 10
277.375611543559
 20
280.3547728759422
 30
0.0
 10
284.4728621425811
 20
279.7097707756675
 30
0.0
 10
292.6996967692121
 20
278.419766575118
 30
0.0
 10
295.1184546452414
 20
278.2585160500494
 30
0.0
 10
297.5382318039801
 20
278.0972655249807
 30
0.0
 10
314.6371070140631
 20
276.6458069428209
 30
0.0
 10
315.282109114336
 20
276.484556417754
 30
0.0
 10
315.9271112146107
 20
276.3233058926853
 30
0.0
 10
334.4774450068526
 20
274.5495675255315
 30
0.0
 10
336.4124677250329
 20
274.5495675255315
 30
0.0
 10
338.3474576084973
 20
274.5495675255315
 30
0.0
 10
353.1888254676196
 20
271.4837515752042
 30
0.0
 10
357.5446282098947
 20
271.6450021002729
 30
0.0
  0
SPLINE
  5
6D
330
1F
100
AcDbEntity
  8
Layer 1
 62
     7
420
 16777215
370
    18
100
AcDbSpline
210
0.0
220
0.0
230
1.0
 70
     8
 71
     3
 72
    11
 73
     7
 74
     0
 42
0.0000000001
 43
0.0000000001
 12
1.0
 22
0.0
 32
0.0
 13
1.0
 23
0.0
 33
0.0
 40
0.0
 40
0.0
 40
0.0
 40
0.0
 40
1.0
 40
1.0
 40
1.0
 40
2.0
 40
2.0
 40
2.0
 40
2.0
 10
277.375611543559
 20
276.000804842548
 30
0.0
 10
280.2791253515425
 20
276.000804842548
 30
0.0
 10
293.0221978193495
 20
274.0637599763013
 30
0.0
 10
296.5707440644419
 20
273.4187578760266
 30
0.0
 10
300.1192594877893
 20
272.7737557757519
 30
0.0
 10
314.6371070140631
 20
270.9999999999982
 30
0.0
 10
317.2173352041518
 20
271.161250525065
 30
0.0
  0
SPLINE
  5
6E
330
1F
100
AcDbEntity
  8
Layer 1
 62
     7
420
 16777215
370
    18
100
AcDbSpline
210
0.0
220
0.0
230
1.0
 70
     8
 71
     3
 72
    11
 73
     7
 74
     0
 42
0.0000000001
 43
0.0000000001
 12
1.0
 22
0.0
 32
0.0
 13
1.0
 23
0.0
 33
0.0
 40
0.0
 40
0.0
 40
0.0
 40
0.0
 40
1.0
 40
1.0
 40
1.0
 40
2.0
 40
2.0
 40
2.0
 40
2.0
 10
277.0520762847464
 20
338.7484601746273
 30
0.0
 10
278.9075785340183
 20
339.2322117498334
 30
0.0
 10
281.811107267964
 20
340.1181722832698
 30
0.0
 10
283.8276712747174
 20
340.8467555659445
 30
0.0
 10
285.8433896773904
 20
341.5714846760293
 30
0.0
 10
287.2151403514563
 20
342.1367597664921
 30
0.0
 10
288.1826435018702
 20
342.3777181996538
 30
0.0
  0
SPLINE
  5
6F
330
1F
100
AcDbEntity
  8
Layer 1
 62
     7
420
 16777215
370
    18
100
AcDbSpline
210
0.0
220
0.0
230
1.0
 70
     8
 71
     3
 72
    17
 73
    13
 74
     0
 42
0.0000000001
 43
0.0000000001
 12
1.0
 22
0.0
 32
0.0
 13
1.0
 23
0.0
 33
0.0
 40
0.0
 40
0.0
 40
0.0
 40
0.0
 40
1.0
 40
1.0
 40
1.0
 40
2.0
 40
2.0
 40
2.0
 40
3.0
 40
3.0
 40
3.0
 40
4.0
 40
4.0
 40
4.0
 40
4.0
 10
277.1338227582646
 20
333.0229453237098
 30
0.0
 10
279.3913301092243
 20
333.6679663260438
 30
0.0
 10
283.424631801362
 20
335.3601605827625
 30
0.0
 10
288.9081689364048
 20
336.4909528236676
 30
0.0
 10
294.3929292107023
 20
337.6197064991466
 30
0.0
 10
299.7162505937258
 20
339.4731701829951
 30
0.0
 10
301.2482170198118
 20
339.7159633250394
 30
0.0
 10
302.7810143624038
 20
339.9589793846098
 30
0.0
 10
305.4427692370191
 20
340.2017534656698
 30
0.0
 10
308.5880875447529
 20
340.6834664754515
 30
0.0
 10
311.7335940740359
 20
341.16925661608
 30
0.0
 10
313.5880612466754
 20
342.1367597664921
 30
0.0
 10
313.9105622968127
 20
342.3777181996538
 30
0.0
  0
SPLINE
  5
70
330
1F
100
AcDbEntity
  8
Layer 1
 62
     7
420
 16777215
370
    18
100
AcDbSpline
210
0.0
220
0.0
230
1.0
 70
     8
 71
     3
 72
    17
 73
    13
 74
     0
 42
0.0000000001
 43
0.0000000001
 12
1.0
 22
0.0
 32
0.0
 13
1.0
 23
0.0
 33
0.0
 40
0.0
 40
0.0
 40
0.0
 40
0.0
 40
1.0
 40
1.0
 40
1.0
 40
2.0
 40
2.0
 40
2.0
 40
3.0
 40
3.0
 40
3.0
 40
4.0
 40
4.0
 40
4.0
 40
4.0
 10
277.1338227582646
 20
327.9403940076445
 30
0.0
 10
280.0373514922103
 20
329.0693515396651
 30
0.0
 10
286.246617918333
 20
330.6818567903501
 30
0.0
 10
288.9888961272109
 20
331.1676469309823
 30
0.0
 10
291.7311896247038
 20
331.6513985061865
 30
0.0
 10
299.7967584376529
 20
334.8784475729826
 30
0.0
 10
301.3297596367865
 20
334.957951624534
 30
0.0
 10
302.861757123007
 20
335.037659532627
 30
0.0
 10
309.0718234055039
 20
337.1359549239423
 30
0.0
 10
311.169303370647
 20
337.6197064991466
 30
0.0
 10
313.2655601965398
 20
338.1034580743544
 30
0.0
 10
327.62113791503
 20
341.9734706759991
 30
0.0
 10
328.8314342074864
 20
342.5389687247225
 30
0.0
  0
SPLINE
  5
71
330
1F
100
AcDbEntity
  8
Layer 1
 62
     7
420
 16777215
370
    18
100
AcDbSpline
210
0.0
220
0.0
230
1.0
 70
     8
 71
     3
 72
    23
 73
    19
 74
     0
 42
0.0000000001
 43
0.0000000001
 12
1.0
 22
0.0
 32
0.0
 13
1.0
 23
0.0
 33
0.0
 40
0.0
 40
0.0
 40
0.0
 40
0.0
 40
1.0
 40
1.0
 40
1.0
 40
2.0
 40
2.0
 40
2.0
 40
3.0
 40
3.0
 40
3.0
 40
4.0
 40
4.0
 40
4.0
 40
5.0
 40
5.0
 40
5.0
 40
6.0
 40
6.0
 40
6.0
 40
6.0
 10
281.0048546426206
 20
323.1825861636808
 30
0.0
 10
283.1826540854881
 20
324.554132981204
 30
0.0
 10
287.2956636857198
 20
325.1991350814787
 30
0.0
 10
289.7961680352673
 20
326.0871341803395
 30
0.0
 10
292.2956531020991
 20
326.9728908572324
 30
0.0
 10
301.2482170198118
 20
329.6346457318468
 30
0.0
 10
301.6522606869257
 20
329.7958962569155
 30
0.0
 10
302.0554889278665
 20
329.9571467819842
 30
0.0
 10
308.4268213052273
 20
332.1351500813926
 30
0.0
 10
310.2007809375245
 20
332.1351500813926
 30
0.0
 10
311.9755559959904
 20
332.1351500813926
 30
0.0
 10
317.6213629388149
 20
334.1496604337663
 30
0.0
 10
321.4934141058839
 20
334.7151584824896
 30
0.0
 10
325.3634428457663
 20
335.2804716174651
 30
0.0
 10
332.6219427575797
 20
337.5381638821727
 30
0.0
 10
334.7999624336153
 20
338.0237501662596
 30
0.0
 10
336.9777454998548
 20
338.5056670325848
 30
0.0
 10
349.8820684927305
 20
341.3284685757244
 30
0.0
 10
351.4148658353242
 20
342.3777181996538
 30
0.0
  0
SPLINE
  5
72
330
1F
100
AcDbEntity
  8
Layer 1
 62
     7
420
 16777215
370
    18
100
AcDbSpline
210
0.0
220
0.0
230
1.0
 70
     8
 71
     3
 72
    23
 73
    19
 74
     0
 42
0.0000000001
 43
0.0000000001
 12
1.0
 22
0.0
 32
0.0
 13
1.0
 23
0.0
 33
0.0
 40
0.0
 40
0.0
 40
0.0
 40
0.0
 40
1.0
 40
1.0
 40
1.0
 40
2.0
 40
2.0
 40
2.0
 40
3.0
 40
3.0
 40
3.0
 40
4.0
 40
4.0
 40
4.0
 40
5.0
 40
5.0
 40
5.0
 40
6.0
 40
6.0
 40
6.0
 40
6.0
 10
367.2219021359761
 20
342.6184727762738
 30
0.0
 10
361.8188883351941
 20
340.1181722832698
 30
0.0
 10
352.0600717921407
 20
336.4909528236676
 30
0.0
 10
347.1387710011422
 20
335.6826616328999
 30
0.0
 10
342.2215473409906
 20
334.8784475729826
 30
0.0
 10
331.9769406573068
 20
331.0043578404875
 30
0.0
 10
329.7194333063471
 20
330.1183973070529
 30
0.0
 10
327.4617220988439
 20
329.2324367736164
 30
0.0
 10
312.4593233834476
 20
325.3603856065474
 30
0.0
 10
309.3138168541664
 20
324.6338408892989
 30
0.0
 10
306.1683103248852
 20
323.9091308809311
 30
0.0
 10
300.6837382538006
 20
321.9741245801069
 30
0.0
 10
297.1352074195802
 20
321.2455412974341
 30
0.0
 10
293.5866765853598
 20
320.5208312890663
 30
0.0
 10
289.1501466522805
 20
319.5533281386543
 30
0.0
 10
286.7313887762512
 20
319.0695765634482
 30
0.0
 10
284.3116116175106
 20
318.585824988244
 30
0.0
 10
279.3913301092243
 20
317.2958207876945
 30
0.0
 10
277.7788248585384
 20
316.9733197375572
 30
0.0
  0
SPLINE
  5
73
330
1F
100
AcDbEntity
  8
Layer 1
 62
     7
420
 16777215
370
    18
100
AcDbSpline
210
0.0
220
0.0
230
1.0
 70
     8
 71
     3
 72
    32
 73
    28
 74
     0
 42
0.0000000001
 43
0.0000000001
 12
1.0
 22
0.0
 32
0.0
 13
1.0
 23
0.0
 33
0.0
 40
0.0
 40
0.0
 40
0.0
 40
0.0
 40
1.0
 40
1.0
 40
1.0
 40
2.0
 40
2.0
 40
2.0
 40
3.0
 40
3.0
 40
3.0
 40
4.0
 40
4.0
 40
4.0
 40
5.0
 40
5.0
 40
5.0
 40
6.0
 40
6.0
 40
6.0
 40
7.0
 40
7.0
 40
7.0
 40
8.0
 40
8.0
 40
8.0
 40
9.0
 40
9.0
 40
9.0
 40
9.0
 10
277.1338227582646
 20
310.7620147460111
 30
0.0
 10
281.1661051676901
 20
311.6498099883283
 30
0.0
 10
292.1344025770313
 20
313.9075211958316
 30
0.0
 10
294.2316786856336
 20
314.6320273476558
 30
0.0
 10
296.3289547942404
 20
315.3587759214479
 30
0.0
 10
307.2970483470363
 20
318.1000348476118
 30
0.0
 10
308.7493223553647
 20
318.5040785147248
 30
0.0
 10
310.2007809375245
 20
318.9083260383813
 30
0.0
 10
315.282109114336
 20
320.3595807639958
 30
0.0
 10
318.9113831146096
 20
321.1658333893392
 30
0.0
 10
322.540625164389
 20
321.9741245801069
 30
0.0
 10
331.0094375068948
 20
324.150089314091
 30
0.0
 10
333.5097379998988
 20
325.8441371817516
 30
0.0
 10
336.0102423494445
 20
327.5363503405315
 30
0.0
 10
341.899046290855
 20
328.9896436315739
 30
0.0
 10
345.2037647003181
 20
329.9571467819842
 30
0.0
 10
348.5123563840898
 20
330.9246499323963
 30
0.0
 10
353.9950949544982
 20
333.3454463738472
 30
0.0
 10
357.0608766346904
 20
333.9089058571481
 30
0.0
 10
360.1246366109917
 20
334.4742000493279
 30
0.0
 10
365.4479425036789
 20
336.570456875219
 30
0.0
 10
365.9316940788831
 20
336.650164783312
 30
0.0
 10
366.4154456540891
 20
336.7317074002876
 30
0.0
 10
373.3534992194291
 20
338.909710699696
 30
0.0
 10
376.8213028628452
 20
339.9589793846098
 30
0.0
 10
380.2893103628012
 20
341.0059675255889
 30
0.0
 10
383.4348168126216
 20
341.8939666244496
 30
0.0
 10
384.9657794463328
 20
342.5389687247225
 30
0.0
  0
SPLINE
  5
74
330
1F
100
AcDbEntity
  8
Layer 1
 62
     7
420
 16777215
370
    18
100
AcDbSpline
210
0.0
220
0.0
230
1.0
 70
     8
 71
     3
 72
    35
 73
    31
 74
     0
 42
0.0000000001
 43
0.0000000001
 12
1.0
 22
0.0
 32
0.0
 13
1.0
 23
0.0
 33
0.0
 40
0.0
 40
0.0
 40
0.0
 40
0.0
 40
1.0
 40
1.0
 40
1.0
 40
2.0
 40
2.0
 40
2.0
 40
3.0
 40
3.0
 40
3.0
 40
4.0
 40
4.0
 40
4.0
 40
5.0
 40
5.0
 40
5.0
 40
6.0
 40
6.0
 40
6.0
 40
7.0
 40
7.0
 40
7.0
 40
8.0
 40
8.0
 40
8.0
 40
9.0
 40
9.0
 40
9.0
 40
10.0
 40
10.0
 40
10.0
 40
10.0
 10
408.9207578916921
 20
342.0552171495165
 30
0.0
 10
406.0979563485525
 20
341.0877139991062
 30
0.0
 10
401.2581981745279
 20
340.2814613737628
 30
0.0
 10
399.5641503068673
 20
339.7159633250394
 30
0.0
 10
397.8719371480893
 20
339.1506691328577
 30
0.0
 10
388.5153295632645
 20
337.2156628320372
 30
0.0
 10
385.6923241635814
 20
336.2479558250816
 30
0.0
 10
382.8693363548573
 20
335.2804716174651
 30
0.0
 10
377.6257207793042
 20
333.425154281942
 30
0.0
 10
375.9335076205261
 20
333.1821572833542
 30
0.0
 10
374.239255896322
 20
332.9414027067342
 30
0.0
 10
367.1421942278812
 20
330.9246499323963
 30
0.0
 10
363.7538946360182
 20
330.4409171777279
 30
0.0
 10
360.3656120666219
 20
329.9571467819842
 30
0.0
 10
351.0923647851869
 20
326.4891392820264
 30
0.0
 10
348.8348574342272
 20
325.9238450898465
 30
0.0
 10
346.5753115178431
 20
325.3603856065474
 30
0.0
 10
337.2207424984426
 20
322.6191266803817
 30
0.0
 10
334.3159906252422
 20
321.6516235299696
 30
0.0
 10
331.4114426085816
 20
320.682081814135
 30
0.0
 10
325.0409256573912
 20
317.6183403344439
 30
0.0
 10
322.1384322629237
 20
317.1325316972016
 30
0.0
 10
319.2338681894998
 20
316.6508186874198
 30
0.0
 10
308.1043202550918
 20
313.8278132877385
 30
0.0
 10
307.1357978219676
 20
313.2625190955569
 30
0.0
 10
306.1683103248852
 20
312.6970210468335
 30
0.0
 10
296.0869770783638
 20
310.5190177474233
 30
0.0
 10
295.521682886183
 20
310.1965166972859
 30
0.0
 10
294.9572041201718
 20
309.8740156471504
 30
0.0
 10
283.1826540854881
 20
308.5840114466009
 30
0.0
 10
281.5691295520901
 20
307.2145031945038
 30
0.0
  0
SPLINE
  5
75
330
1F
100
AcDbEntity
  8
Layer 1
 62
     7
420
 16777215
370
    18
100
AcDbSpline
210
0.0
220
0.0
230
1.0
 70
     8
 71
     3
 72
    47
 73
    43
 74
     0
 42
0.0000000001
 43
0.0000000001
 12
1.0
 22
0.0
 32
0.0
 13
1.0
 23
0.0
 33
0.0
 40
0.0
 40
0.0
 40
0.0
 40
0.0
 40
1.0
 40
1.0
 40
1.0
 40
2.0
 40
2.0
 40
2.0
 40
3.0
 40
3.0
 40
3.0
 40
4.0
 40
4.0
 40
4.0
 40
5.0
 40
5.0
 40
5.0
 40
6.0
 40
6.0
 40
6.0
 40
7.0
 40
7.0
 40
7.0
 40
8.0
 40
8.0
 40
8.0
 40
9.0
 40
9.0
 40
9.0
 40
10.0
 40
10.0
 40
10.0
 40
11.0
 40
11.0
 40
11.0
 40
12.0
 40
12.0
 40
12.0
 40
13.0
 40
13.0
 40
13.0
 40
14.0
 40
14.0
 40
14.0
 40
14.0
 10
408.9207578916921
 20
335.7642042498755
 30
0.0
 10
408.0329626493731
 20
335.3601605827625
 30
0.0
 10
404.0791650087867
 20
334.3926574323523
 30
0.0
 10
400.2888783462513
 20
334.1496604337663
 30
0.0
 10
396.4983517651399
 20
333.9089058571481
 30
0.0
 10
390.0481269058564
 20
331.8921530828065
 30
0.0
 10
387.9498315145411
 20
331.3288974560492
 30
0.0
 10
385.85357468865
 20
330.7633994073258
 30
0.0
 10
378.0297819151201
 20
328.8284118863048
 30
0.0
 10
374.0780053712551
 20
328.2649336232062
 30
0.0
 10
370.126450152633
 20
327.6996394310245
 30
0.0
 10
360.5286973046896
 20
324.554132981204
 30
0.0
 10
358.0283797851007
 20
323.9091308809311
 30
0.0
 10
355.527875435555
 20
323.2641287806564
 30
0.0
 10
350.6883211180739
 20
321.5680423475715
 30
0.0
 10
347.7837731014151
 20
321.086125481248
 30
0.0
 10
344.8812636501807
 20
320.6005391971594
 30
0.0
 10
334.7202381488969
 20
317.4550327473389
 30
0.0
 10
331.5747316990764
 20
316.4875295969268
 30
0.0
 10
328.4294453214916
 20
315.5200264465166
 30
0.0
 10
323.1059193565688
 20
312.9398325672992
 30
0.0
 10
318.7501166142938
 20
311.8907684214901
 30
0.0
 10
314.3943138720188
 20
310.8417226541042
 30
0.0
 10
309.9588032216507
 20
309.794511595599
 30
0.0
 10
307.2165250127728
 20
309.4720105454617
 30
0.0
 10
304.4742624144283
 20
309.1495094953261
 30
0.0
 10
297.0595766423357
 20
307.009423512809
 30
0.0
 10
298.3444844293226
 20
306.8102556708473
 30
0.0
 10
300.4417605379267
 20
306.4857342706655
 30
0.0
 10
303.9904952286897
 20
305.5182129048735
 30
0.0
 10
309.1525505963073
 20
304.5507097544632
 30
0.0
 10
314.3146059639257
 20
303.583206604053
 30
0.0
 10
327.3801794818683
 20
301.6482183964035
 30
0.0
 10
331.8972327492138
 20
301.3256992530933
 30
0.0
 10
336.4124677250329
 20
301.0031982029559
 30
0.0
 10
347.3815641431847
 20
300.1949070121882
 30
0.0
 10
353.0275749425527
 20
299.2274038617761
 30
0.0
 10
358.6733818853754
 20
298.2599007113658
 30
0.0
 10
373.1902274753811
 20
296.8086639566609
 30
0.0
 10
379.1585181218979
 20
296.8086639566609
 30
0.0
 10
385.1270299713997
 20
296.8086639566609
 30
0.0
 10
405.4529542482778
 20
295.5184379286584
 30
0.0
 10
408.8392152747165
 20
295.6798923102688
 30
0.0
  0
SPLINE
  5
76
330
1F
100
AcDbEntity
  8
Layer 1
 62
     7
420
 16777215
370
    18
100
AcDbSpline
210
0.0
220
0.0
230
1.0
 70
     8
 71
     3
 72
    26
 73
    22
 74
     0
 42
0.0000000001
 43
0.0000000001
 12
1.0
 22
0.0
 32
0.0
 13
1.0
 23
0.0
 33
0.0
 40
0.0
 40
0.0
 40
0.0
 40
0.0
 40
1.0
 40
1.0
 40
1.0
 40
2.0
 40
2.0
 40
2.0
 40
3.0
 40
3.0
 40
3.0
 40
4.0
 40
4.0
 40
4.0
 40
5.0
 40
5.0
 40
5.0
 40
6.0
 40
6.0
 40
6.0
 40
7.0
 40
7.0
 40
7.0
 40
7.0
 10
408.5982568415548
 20
330.2796478321216
 30
0.0
 10
404.1627461911867
 20
330.2796478321216
 30
0.0
 10
393.8386354559498
 20
328.1016445327132
 30
0.0
 10
391.4178390144989
 20
327.2954106484467
 30
0.0
 10
388.9990811384705
 20
326.4891392820264
 30
0.0
 10
384.8045289212623
 20
325.3603856065474
 30
0.0
 10
380.5302687959629
 20
324.7133449408484
 30
0.0
 10
376.2560086706635
 20
324.0683615001271
 30
0.0
 10
367.2219021359761
 20
321.9741245801069
 30
0.0
 10
366.0114019869779
 20
321.1658333893392
 30
0.0
 10
364.8029404034041
 20
320.3595807639958
 30
0.0
 10
358.3508808352381
 20
318.4225358977492
 30
0.0
 10
354.8033692837289
 20
318.1000348476118
 30
0.0
 10
351.251780601373
 20
317.7775337974763
 30
0.0
 10
345.8487668005946
 20
315.8425274966539
 30
0.0
 10
342.866566021672
 20
315.3587759214479
 30
0.0
 10
339.880254951091
 20
314.8750243462418
 30
0.0
 10
336.3327433995819
 20
313.1828111874638
 30
0.0
 10
334.3977370987595
 20
312.6173131387404
 30
0.0
 10
332.4606922325129
 20
312.0520189465587
 30
0.0
 10
314.7168149221561
 20
307.3737151541463
 30
0.0
 10
312.3795996631034
 20
306.8920021443664
 30
0.0
  0
SPLINE
  5
77
330
1F
100
AcDbEntity
  8
Layer 1
 62
     7
420
 16777215
370
    18
100
AcDbSpline
210
0.0
220
0.0
230
1.0
 70
     8
 71
     3
 72
    26
 73
    22
 74
     0
 42
0.0000000001
 43
0.0000000001
 12
1.0
 22
0.0
 32
0.0
 13
1.0
 23
0.0
 33
0.0
 40
0.0
 40
0.0
 40
0.0
 40
0.0
 40
1.0
 40
1.0
 40
1.0
 40
2.0
 40
2.0
 40
2.0
 40
3.0
 40
3.0
 40
3.0
 40
4.0
 40
4.0
 40
4.0
 40
5.0
 40
5.0
 40
5.0
 40
6.0
 40
6.0
 40
6.0
 40
7.0
 40
7.0
 40
7.0
 40
7.0
 10
330.2031848815514
 20
306.8920021443664
 30
0.0
 10
331.8156901322382
 20
307.7777588212575
 30
0.0
 10
334.2344480082666
 20
308.182006344914
 30
0.0
 10
336.8164949747879
 20
308.8270084451888
 30
0.0
 10
339.3985419413093
 20
309.4720105454617
 30
0.0
 10
342.3010513925419
 20
310.4395136958738
 30
0.0
 10
345.6078083674311
 20
311.0845157961467
 30
0.0
 10
348.9145653423202
 20
311.7295178964214
 30
0.0
 10
353.9950949544982
 20
313.2625190955569
 30
0.0
 10
357.2221441028159
 20
314.0687717208984
 30
0.0
 10
360.4491932511337
 20
314.8750243462418
 30
0.0
 10
364.5621858267859
 20
316.4078216888356
 30
0.0
 10
367.3034447529499
 20
316.730322738973
 30
0.0
 10
370.0447209460963
 20
317.0528237891085
 30
0.0
 10
382.0610275731306
 20
320.1186223308359
 30
0.0
 10
384.5615319226763
 20
321.0045828642724
 30
0.0
 10
387.0620362722238
 20
321.890543397707
 30
0.0
 10
391.4993816314727
 20
323.2641287806564
 30
0.0
 10
395.6939517636165
 20
323.5050872138181
 30
0.0
 10
399.8866513570047
 20
323.7458417904381
 30
0.0
 10
408.1942131744436
 20
324.9563419394344
 30
0.0
 10
409.1617163248538
 20
324.8766340313414
 30
0.0
  0
SPLINE
  5
78
330
1F
100
AcDbEntity
  8
Layer 1
 62
     7
420
 16777215
370
    18
100
AcDbSpline
210
0.0
220
0.0
230
1.0
 70
     8
 71
     3
 72
    23
 73
    19
 74
     0
 42
0.0000000001
 43
0.0000000001
 12
1.0
 22
0.0
 32
0.0
 13
1.0
 23
0.0
 33
0.0
 40
0.0
 40
0.0
 40
0.0
 40
0.0
 40
1.0
 40
1.0
 40
1.0
 40
2.0
 40
2.0
 40
2.0
 40
3.0
 40
3.0
 40
3.0
 40
4.0
 40
4.0
 40
4.0
 40
5.0
 40
5.0
 40
5.0
 40
6.0
 40
6.0
 40
6.0
 40
6.0
 10
348.5920642921828
 20
306.8102556708473
 30
0.0
 10
350.8495884252152
 20
308.0187355085291
 30
0.0
 10
353.5928691347326
 20
308.0187355085291
 30
0.0
 10
356.8975875441956
 20
308.8270084451888
 30
0.0
 10
360.2061792279674
 20
309.6332793654237
 30
0.0
 10
366.2541951290223
 20
311.2457846568432
 30
0.0
 10
368.270947903362
 20
311.9723110384657
 30
0.0
 10
370.2877006777017
 20
312.6970210468335
 30
0.0
 10
376.4988192427336
 20
313.9870252473811
 30
0.0
 10
378.8360170717606
 20
314.6320273476558
 30
0.0
 10
381.1752884444013
 20
315.2770294479305
 30
0.0
 10
393.1936333556769
 20
318.4225358977492
 30
0.0
 10
396.5798943821155
 20
318.9083260383813
 30
0.0
 10
399.9663592650995
 20
319.3920776135856
 30
0.0
 10
403.7566639586512
 20
319.8758291887916
 30
0.0
 10
405.7754552984152
 20
319.9555370968847
 30
0.0
 10
407.7899656507889
 20
320.0370797138603
 30
0.0
 10
408.9207578916921
 20
320.278038147022
 30
0.0
 10
408.9207578916921
 20
320.278038147022
 30
0.0
  0
SPLINE
  5
79
330
1F
100
AcDbEntity
  8
Layer 1
 62
     7
420
 16777215
370
    18
100
AcDbSpline
210
0.0
220
0.0
230
1.0
 70
     8
 71
     3
 72
    17
 73
    13
 74
     0
 42
0.0000000001
 43
0.0000000001
 12
1.0
 22
0.0
 32
0.0
 13
1.0
 23
0.0
 33
0.0
 40
0.0
 40
0.0
 40
0.0
 40
0.0
 40
1.0
 40
1.0
 40
1.0
 40
2.0
 40
2.0
 40
2.0
 40
3.0
 40
3.0
 40
3.0
 40
4.0
 40
4.0
 40
4.0
 40
4.0
 10
369.8854917194712
 20
306.9715061959159
 30
0.0
 10
372.5452080286614
 20
307.6962162042837
 30
0.0
 10
376.8213028628452
 20
308.9065124967383
 30
0.0
 10
379.5627831529782
 20
309.4720105454617
 30
0.0
 10
382.3040245717166
 20
310.0373047376434
 30
0.0
 10
389.3215821886079
 20
311.0845157961467
 30
0.0
 10
391.9831332066788
 20
311.8907684214901
 30
0.0
 10
394.6428495158689
 20
312.6970210468335
 30
0.0
 10
401.5806992246653
 20
313.9870252473811
 30
0.0
 10
403.0321578068251
 20
314.3095262975185
 30
0.0
 10
404.485247241324
 20
314.6320273476558
 30
0.0
 10
407.7104615992375
 20
314.9545283977932
 30
0.0
 10
408.5982568415548
 20
314.8750243462418
 30
0.0
  0
SPLINE
  5
7A
330
1F
100
AcDbEntity
  8
Layer 1
 62
     7
420
 16777215
370
    18
100
AcDbSpline
210
0.0
220
0.0
230
1.0
 70
     8
 71
     3
 72
    11
 73
     7
 74
     0
 42
0.0000000001
 43
0.0000000001
 12
1.0
 22
0.0
 32
0.0
 13
1.0
 23
0.0
 33
0.0
 40
0.0
 40
0.0
 40
0.0
 40
0.0
 40
1.0
 40
1.0
 40
1.0
 40
2.0
 40
2.0
 40
2.0
 40
2.0
 10
396.1758507150043
 20
306.8920021443664
 30
0.0
 10
397.8719371480893
 20
307.939009346328
 30
0.0
 10
399.6436543584186
 20
308.5045073950514
 30
0.0
 10
401.2581981745279
 20
308.8270084451888
 30
0.0
 10
402.8709072817564
 20
309.1495094953261
 30
0.0
 10
408.0329626493731
 20
309.8740156471504
 30
0.0
 10
408.8392152747165
 20
310.0373047376434
 30
0.0
  0
POLYLINE
  5
7B
330
1F
100
AcDbEntity
  8
Layer 1
 62
     7
420
 16777215
370
    30
100
AcDb2dPolyline
 66
     1
 10
0.0
 20
0.0
 30
0.0
  0
VERTEX
  5
7C
330
7B
100
AcDbEntity
  8
Layer 1
 62
     7
420
 16777215
370
    30
100
AcDbVertex
100
AcDb2dVertex
 10
278.0205987178697
 20
306.6490051457804
 30
0.0
  0
VERTEX
  5
7D
330
7B
100
AcDbEntity
  8
Layer 1
 62
     7
420
 16777215
370
    30
100
AcDbVertex
100
AcDb2dVertex
 10
408.1124667009262
 20
306.8920021443664
 30
0.0
  0
SEQEND
  5
7E
330
7B
100
AcDbEntity
  8
Layer 1
 62
     7
420
 16777215
370
    30
  0
POLYLINE
  5
7F
330
1F
100
AcDbEntity
  8
Layer 1
 62
     7
420
 16777215
370
    30
100
AcDb2dPolyline
 66
     1
 10
0.0
 20
0.0
 30
0.0
  0
VERTEX
  5
80
330
7F
100
AcDbEntity
  8
Layer 1
 62
     7
420
 16777215
370
    30
100
AcDbVertex
100
AcDb2dVertex
 10
271.2460380995662
 20
328.3446415312974
 30
0.0
  0
VERTEX
  5
81
330
7F
100
AcDbEntity
  8
Layer 1
 62
     7
420
 16777215
370
    30
100
AcDbVertex
100
AcDb2dVertex
 10
275.1975933181884
 20
324.390843890711
 30
0.0
  0
VERTEX
  5
82
330
7F
100
AcDbEntity
  8
Layer 1
 62
     7
420
 16777215
370
    30
100
AcDbVertex
100
AcDb2dVertex
 10
275.1975933181884
 20
328.2649336232062
 30
0.0
  0
VERTEX
  5
83
330
7F
100
AcDbEntity
  8
Layer 1
 62
     7
420
 16777215
370
    30
100
AcDbVertex
100
AcDb2dVertex
 10
273.1810444003904
 20
330.1999399240285
 30
0.0
  0
VERTEX
  5
84
330
7F
100
AcDbEntity
  8
Layer 1
 62
     7
420
 16777215
370
    30
100
AcDbVertex
100
AcDb2dVertex
 10
271.2460380995662
 20
328.3446415312974
 30
0.0
  0
SEQEND
  5
86
330
7F
100
AcDbEntity
  8
Layer 1
 62
     7
420
 16777215
370
    30
  0
HATCH
  5
85
330
1F
100
AcDbEntity
  8
Layer 1
 62
   254
420
 13358815
100
AcDbHatch
 10
0.0
 20
0.0
 30
0.0
210
0.0
220
0.0
230
1.0
  2
SOLID
 70
     1
 71
     0
 91
        1
 92
        1
 93
        4
 72
     1
 10
271.2460380995662
 20
328.3446415312974
 11
275.1975933181884
 21
324.390843890711
 72
     1
 10
275.1975933181884
 20
324.390843890711
 11
275.1975933181884
 21
328.2649336232062
 72
     1
 10
275.1975933181884
 20
328.2649336232062
 11
273.1810444003904
 21
330.1999399240285
 72
     1
 10
273.1810444003904
 20
330.1999399240285
 11
271.2460380995662
 21
328.3446415312974
 97
        0
 75
     2
 76
     1
 98
        0
  0
POLYLINE
  5
87
330
1F
100
AcDbEntity
  8
Layer 1
 62
     7
420
 16777215
370
    30
100
AcDb2dPolyline
 66
     1
 10
0.0
 20
0.0
 30
0.0
  0
VERTEX
  5
88
330
87
100
AcDbEntity
  8
Layer 1
 62
     7
420
 16777215
370
    30
100
AcDbVertex
100
AcDb2dVertex
 10
269.8852956787923
 20
326.9372159623053
 30
0.0
  0
VERTEX
  5
89
330
87
100
AcDbEntity
  8
Layer 1
 62
     7
420
 16777215
370
    30
100
AcDbVertex
100
AcDb2dVertex
 10
268.3076498968639
 20
328.3923439622286
 30
0.0
  0
VERTEX
  5
8A
330
87
100
AcDbEntity
  8
Layer 1
 62
     7
420
 16777215
370
    30
100
AcDbVertex
100
AcDb2dVertex
 10
272.6972928251835
 20
332.9414027067342
 30
0.0
  0
VERTEX
  5
8B
330
87
100
AcDbEntity
  8
Layer 1
 62
     7
420
 16777215
370
    30
100
AcDbVertex
100
AcDb2dVertex
 10
274.3108173585806
 20
331.4104400730248
 30
0.0
  0
VERTEX
  5
8C
330
87
100
AcDbEntity
  8
Layer 1
 62
     7
420
 16777215
370
    30
100
AcDbVertex
100
AcDb2dVertex
 10
269.8852956787923
 20
326.9372159623053
 30
0.0
  0
SEQEND
  5
8E
330
87
100
AcDbEntity
  8
Layer 1
 62
     7
420
 16777215
370
    30
  0
HATCH
  5
8D
330
1F
100
AcDbEntity
  8
Layer 1
 62
   254
420
 13358815
100
AcDbHatch
 10
0.0
 20
0.0
 30
0.0
210
0.0
220
0.0
230
1.0
  2
SOLID
 70
     1
 71
     0
 91
        1
 92
        1
 93
        4
 72
     1
 10
269.8852956787923
 20
326.9372159623053
 11
268.3076498968639
 21
328.3923439622286
 72
     1
 10
268.3076498968639
 20
328.3923439622286
 11
272.6972928251835
 21
332.9414027067342
 72
     1
 10
272.6972928251835
 20
332.9414027067342
 11
274.3108173585806
 21
331.4104400730248
 72
     1
 10
274.3108173585806
 20
331.4104400730248
 11
269.8852956787923
 21
326.9372159623053
 97
        0
 75
     2
 76
     1
 98
        0
  0
POLYLINE
  5
8F
330
1F
100
AcDbEntity
  8
Layer 1
 62
     7
420
 16777215
370
    30
100
AcDb2dPolyline
 66
     1
 10
0.0
 20
0.0
 30
0.0
  0
VERTEX
  5
90
330
8F
100
AcDbEntity
  8
Layer 1
 62
     7
420
 16777215
370
    30
100
AcDbVertex
100
AcDb2dVertex
 10
300.4417605379267
 20
344.458093389876
 30
0.0
  0
VERTEX
  5
91
330
8F
100
AcDbEntity
  8
Layer 1
 62
     7
420
 16777215
370
    30
100
AcDbVertex
100
AcDb2dVertex
 10
300.4417605379267
 20
346.6519783249532
 30
0.0
  0
VERTEX
  5
92
330
8F
100
AcDbEntity
  8
Layer 1
 62
     7
420
 16777215
370
    30
100
AcDbVertex
100
AcDb2dVertex
 10
307.0552744877041
 20
346.6519783249532
 30
0.0
  0
VERTEX
  5
93
330
8F
100
AcDbEntity
  8
Layer 1
 62
     7
420
 16777215
370
    30
100
AcDbVertex
100
AcDb2dVertex
 10
307.0552744877041
 20
344.4739750255449
 30
0.0
  0
VERTEX
  5
94
330
8F
100
AcDbEntity
  8
Layer 1
 62
     7
420
 16777215
370
    30
100
AcDbVertex
100
AcDb2dVertex
 10
300.4417605379267
 20
344.458093389876
 30
0.0
  0
SEQEND
  5
96
330
8F
100
AcDbEntity
  8
Layer 1
 62
     7
420
 16777215
370
    30
  0
HATCH
  5
95
330
1F
100
AcDbEntity
  8
Layer 1
 62
   254
420
 13358815
100
AcDbHatch
 10
0.0
 20
0.0
 30
0.0
210
0.0
220
0.0
230
1.0
  2
SOLID
 70
     1
 71
     0
 91
        1
 92
        1
 93
        4
 72
     1
 10
300.4417605379267
 20
344.458093389876
 11
300.4417605379267
 21
346.6519783249532
 72
     1
 10
300.4417605379267
 20
346.6519783249532
 11
307.0552744877041
 21
346.6519783249532
 72
     1
 10
307.0552744877041
 20
346.6519783249532
 11
307.0552744877041
 21
344.4739750255449
 72
     1
 10
307.0552744877041
 20
344.4739750255449
 11
300.4417605379267
 21
344.458093389876
 97
        0
 75
     2
 76
     1
 98
        0
  0
POLYLINE
  5
97
330
1F
100
AcDbEntity
  8
Layer 1
370
     0
100
AcDb2dPolyline
 66
     1
 10
0.0
 20
0.0
 30
0.0
  0
VERTEX
  5
98
330
97
100
AcDbEntity
  8
Layer 1
370
     0
100
AcDbVertex
100
AcDb2dVertex
 10
283.5051551356264
 20
348.2644835756382
 30
0.0
  0
VERTEX
  5
99
330
97
100
AcDbEntity
  8
Layer 1
370
     0
100
AcDbVertex
100
AcDb2dVertex
 10
315.2026050627865
 20
366.5736550781767
 30
0.0
  0
SEQEND
  5
9A
330
97
100
AcDbEntity
  8
Layer 1
370
     0
  0
SPLINE
  5
9B
330
1F
100
AcDbEntity
  8
Layer 1
 62
     7
420
 16777215
370
    40
100
AcDbSpline
210
0.0
220
0.0
230
1.0
 70
    11
 71
     3
 72
    59
 73
    55
 74
     0
 42
0.0000000001
 43
0.0000000001
 12
1.0
 22
0.0
 32
0.0
 13
1.0
 23
0.0
 33
0.0
 40
0.0
 40
0.0
 40
0.0
 40
0.0
 40
1.0
 40
1.0
 40
1.0
 40
2.0
 40
2.0
 40
2.0
 40
3.0
 40
3.0
 40
3.0
 40
4.0
 40
4.0
 40
4.0
 40
5.0
 40
5.0
 40
5.0
 40
6.0
 40
6.0
 40
6.0
 40
7.0
 40
7.0
 40
7.0
 40
8.0
 40
8.0
 40
8.0
 40
9.0
 40
9.0
 40
9.0
 40
10.0
 40
10.0
 40
10.0
 40
11.0
 40
11.0
 40
11.0
 40
12.0
 40
12.0
 40
12.0
 40
13.0
 40
13.0
 40
13.0
 40
14.0
 40
14.0
 40
14.0
 40
15.0
 40
15.0
 40
15.0
 40
16.0
 40
16.0
 40
16.0
 40
17.0
 40
17.0
 40
17.0
 40
18.0
 40
18.0
 40
18.0
 40
18.0
 10
277.213326809815
 20
345.0392692177265
 30
0.0
 10
278.1818492429384
 20
345.6047672664481
 30
0.0
 10
282.9408952927124
 20
347.8622746174096
 30
0.0
 10
283.5051551356264
 20
348.184775667547
 30
0.0
 10
283.9083833765681
 20
347.5397735672723
 30
0.0
 10
284.3116116175106
 20
346.6519783249532
 30
0.0
 10
286.5701382511834
 20
347.942001788153
 30
0.0
 10
288.8276456021422
 20
349.2319867260503
 30
0.0
 10
312.5388274370089
 20
362.8648930015988
 30
0.0
 10
313.8288158232954
 20
363.5896030099666
 30
0.0
 10
315.1208585892673
 20
364.3141091617927
 30
0.0
 10
315.6843339662901
 20
365.3651934946029
 30
0.0
 10
315.282109114336
 20
366.492112461201
 30
0.0
 10
315.3618170224308
 20
366.655401551694
 30
0.0
 10
317.3804204422231
 20
367.8636592787243
 30
0.0
 10
317.3804204422231
 20
367.8636592787243
 30
0.0
 10
317.3804204422231
 20
367.8636592787243
 30
0.0
 10
314.772467758241
 20
372.3629770268763
 30
0.0
 10
314.4758564889944
 20
372.8646679778158
 30
0.0
 10
313.4268107216067
 20
374.6384237535713
 30
0.0
 10
314.3146059639257
 20
375.9284279541189
 30
0.0
 10
315.3618170224308
 20
375.6059269039815
 30
0.0
 10
315.435409234251
 20
375.4546653494945
 30
0.0
 10
325.5246772325972
 20
412.4652283422192
 30
0.0
 10
325.5246772325972
 20
412.4652283422192
 30
0.0
 10
325.5246772325972
 20
412.4652283422192
 30
0.0
 10
321.4118714889082
 20
419.5624938672017
 30
0.0
 10
321.4118714889082
 20
419.5624938672017
 30
0.0
 10
321.4118714889082
 20
419.5624938672017
 30
0.0
 10
316.8151103134715
 20
421.0952912097946
 30
0.0
 10
316.8151103134715
 20
421.0952912097946
 30
0.0
 10
316.8151103134715
 20
421.0952912097946
 30
0.0
 10
304.0710185629523
 20
413.6747092085043
 30
0.0
 10
304.0710185629523
 20
413.6747092085043
 30
0.0
 10
304.0710185629523
 20
413.6747092085043
 30
0.0
 10
303.0229920782776
 20
408.8361741737335
 30
0.0
 10
303.0229920782776
 20
408.8361741737335
 30
0.0
 10
303.0229920782776
 20
408.8361741737335
 30
0.0
 10
288.1826435018702
 20
400.4478851654922
 30
0.0
 10
288.1826435018702
 20
400.4478851654922
 30
0.0
 10
288.1826435018702
 20
400.4478851654922
 30
0.0
 10
286.8926393013189
 20
396.6573766153961
 30
0.0
 10
286.8926393013189
 20
396.6573766153961
 30
0.0
 10
286.8926393013189
 20
396.6573766153961
 30
0.0
 10
290.6829439948733
 20
389.5593159782384
 30
0.0
 10
290.6829439948733
 20
389.5593159782384
 30
0.0
 10
290.6829439948733
 20
389.5593159782384
 30
0.0
 10
277.0520762847464
 20
354.2327915686001
 30
0.0
 10
276.5683396151107
 20
353.1060764585454
 30
0.0
 10
278.5850774838809
 20
350.1197819683675
 30
0.0
 10
278.3828517937827
 20
348.0932440799916
 30
0.0
 10
276.4070741844735
 20
346.168226749749
 30
0.0
 10
275.7551409617554
 20
345.5330097635106
 30
0.0
 10
276.2458236594039
 20
344.4739750255449
 30
0.0
 10
277.213326809815
 20
345.0392692177265
 30
0.0
  0
HATCH
  5
9C
330
1F
100
AcDbEntity
  8
Layer 1
 62
   254
420
 13358815
100
AcDbHatch
 10
0.0
 20
0.0
 30
0.0
210
0.0
220
0.0
230
1.0
  2
SOLID
 70
     1
 71
     0
 91
        1
 92
        1
 93
        1
 72
     4
 94
        3
 73
     0
 74
     1
 95
       59
 96
       55
 40
0.0
 40
0.0
 40
0.0
 40
0.0
 40
1.0
 40
1.0
 40
1.0
 40
2.0
 40
2.0
 40
2.0
 40
3.0
 40
3.0
 40
3.0
 40
4.0
 40
4.0
 40
4.0
 40
5.0
 40
5.0
 40
5.0
 40
6.0
 40
6.0
 40
6.0
 40
7.0
 40
7.0
 40
7.0
 40
8.0
 40
8.0
 40
8.0
 40
9.0
 40
9.0
 40
9.0
 40
10.0
 40
10.0
 40
10.0
 40
11.0
 40
11.0
 40
11.0
 40
12.0
 40
12.0
 40
12.0
 40
13.0
 40
13.0
 40
13.0
 40
14.0
 40
14.0
 40
14.0
 40
15.0
 40
15.0
 40
15.0
 40
16.0
 40
16.0
 40
16.0
 40
17.0
 40
17.0
 40
17.0
 40
18.0
 40
18.0
 40
18.0
 40
18.0
 10
277.213326809815
 20
345.0392692177265
 10
278.1818492429384
 20
345.6047672664481
 10
282.9408952927124
 20
347.8622746174096
 10
283.5051551356264
 20
348.184775667547
 10
283.9083833765681
 20
347.5397735672723
 10
284.3116116175106
 20
346.6519783249532
 10
286.5701382511834
 20
347.942001788153
 10
288.8276456021422
 20
349.2319867260503
 10
312.5388274370089
 20
362.8648930015988
 10
313.8288158232954
 20
363.5896030099666
 10
315.1208585892673
 20
364.3141091617927
 10
315.6843339662901
 20
365.3651934946029
 10
315.282109114336
 20
366.492112461201
 10
315.3618170224308
 20
366.655401551694
 10
317.3804204422231
 20
367.8636592787243
 10
317.3804204422231
 20
367.8636592787243
 10
317.3804204422231
 20
367.8636592787243
 10
314.772467758241
 20
372.3629770268763
 10
314.4758564889944
 20
372.8646679778158
 10
313.4268107216067
 20
374.6384237535713
 10
314.3146059639257
 20
375.9284279541189
 10
315.3618170224308
 20
375.6059269039815
 10
315.435409234251
 20
375.4546653494945
 10
325.5246772325972
 20
412.4652283422192
 10
325.5246772325972
 20
412.4652283422192
 10
325.5246772325972
 20
412.4652283422192
 10
321.4118714889082
 20
419.5624938672017
 10
321.4118714889082
 20
419.5624938672017
 10
321.4118714889082
 20
419.5624938672017
 10
316.8151103134715
 20
421.0952912097946
 10
316.8151103134715
 20
421.0952912097946
 10
316.8151103134715
 20
421.0952912097946
 10
304.0710185629523
 20
413.6747092085043
 10
304.0710185629523
 20
413.6747092085043
 10
304.0710185629523
 20
413.6747092085043
 10
303.0229920782776
 20
408.8361741737335
 10
303.0229920782776
 20
408.8361741737335
 10
303.0229920782776
 20
408.8361741737335
 10
288.1826435018702
 20
400.4478851654922
 10
288.1826435018702
 20
400.4478851654922
 10
288.1826435018702
 20
400.4478851654922
 10
286.8926393013189
 20
396.6573766153961
 10
286.8926393013189
 20
396.6573766153961
 10
286.8926393013189
 20
396.6573766153961
 10
290.6829439948733
 20
389.5593159782384
 10
290.6829439948733
 20
389.5593159782384
 10
290.6829439948733
 20
389.5593159782384
 10
277.0520762847464
 20
354.2327915686001
 10
276.5683396151107
 20
353.1060764585454
 10
278.5850774838809
 20
350.1197819683675
 10
278.3828517937827
 20
348.0932440799916
 10
276.4070741844735
 20
346.168226749749
 10
275.7551409617554
 20
345.5330097635106
 10
276.2458236594039
 20
344.4739750255449
 10
277.213326809815
 20
345.0392692177265
 97
        0
 97
        0
 75
     2
 76
     1
 98
        0
  0
POLYLINE
  5
9D
330
1F
100
AcDbEntity
  8
Layer 1
 62
     7
420
 16777215
370
    40
100
AcDb2dPolyline
 66
     1
 10
0.0
 20
0.0
 30
0.0
  0
VERTEX
  5
9E
330
9D
100
AcDbEntity
  8
Layer 1
 62
     7
420
 16777215
370
    40
100
AcDbVertex
100
AcDb2dVertex
 10
303.0229920782776
 20
408.7554469829302
 30
0.0
  0
VERTEX
  5
9F
330
9D
100
AcDbEntity
  8
Layer 1
 62
     7
420
 16777215
370
    40
100
AcDbVertex
100
AcDb2dVertex
 10
306.3295451966242
 20
403.2708905651743
 30
0.0
  0
SEQEND
  5
A0
330
9D
100
AcDbEntity
  8
Layer 1
 62
     7
420
 16777215
370
    40
  0
POLYLINE
  5
A1
330
1F
100
AcDbEntity
  8
Layer 1
 62
     7
420
 16777215
370
    18
100
AcDb2dPolyline
 66
     1
 10
0.0
 20
0.0
 30
0.0
  0
VERTEX
  5
A2
330
A1
100
AcDbEntity
  8
Layer 1
 62
     7
420
 16777215
370
    18
100
AcDbVertex
100
AcDb2dVertex
 10
305.0267136583916
 20
385.7549248692649
 30
0.0
  0
VERTEX
  5
A3
330
A1
100
AcDbEntity
  8
Layer 1
 62
     7
420
 16777215
370
    18
100
AcDbVertex
100
AcDb2dVertex
 10
302.861757123007
 20
377.9470154373412
 30
0.0
  0
SEQEND
  5
A4
330
A1
100
AcDbEntity
  8
Layer 1
 62
     7
420
 16777215
370
    18
  0
POLYLINE
  5
A5
330
1F
100
AcDbEntity
  8
Layer 1
 62
     7
420
 16777215
370
    18
100
AcDb2dPolyline
 66
     1
 10
0.0
 20
0.0
 30
0.0
  0
VERTEX
  5
A6
330
A5
100
AcDbEntity
  8
Layer 1
 62
     7
420
 16777215
370
    18
100
AcDbVertex
100
AcDb2dVertex
 10
307.2970483470363
 20
393.91509840652
 30
0.0
  0
VERTEX
  5
A7
330
A5
100
AcDbEntity
  8
Layer 1
 62
     7
420
 16777215
370
    18
100
AcDbVertex
100
AcDb2dVertex
 10
305.5004606385282
 20
387.4730278089319
 30
0.0
  0
SEQEND
  5
A8
330
A5
100
AcDbEntity
  8
Layer 1
 62
     7
420
 16777215
370
    18
  0
SPLINE
  5
A9
330
1F
100
AcDbEntity
  8
Layer 1
 62
     7
420
 16777215
370
    18
100
AcDbSpline
210
0.0
220
0.0
230
1.0
 70
     8
 71
     3
 72
    14
 73
    10
 74
     0
 42
0.0000000001
 43
0.0000000001
 12
1.0
 22
0.0
 32
0.0
 13
1.0
 23
0.0
 33
0.0
 40
0.0
 40
0.0
 40
0.0
 40
0.0
 40
1.0
 40
1.0
 40
1.0
 40
2.0
 40
2.0
 40
2.0
 40
3.0
 40
3.0
 40
3.0
 40
3.0
 10
302.1360278135953
 20
375.2037378970908
 30
0.0
 10
301.9747617370613
 20
373.2687116449288
 30
0.0
 10
306.3295451966242
 20
371.3337053441064
 30
0.0
 10
307.2970483470363
 20
374.4790079373852
 30
0.0
 10
308.394000401895
 20
378.036712316014
 30
0.0
 10
312.1944979225682
 20
392.3871936209453
 30
0.0
 10
312.9430591464024
 20
395.0438520819989
 30
0.0
 10
313.8288158232954
 20
398.1893585318194
 30
0.0
 10
310.0395461635781
 20
399.5611092058853
 30
0.0
 10
308.3462979709657
 20
396.6573766153961
 30
0.0
  0
SPLINE
  5
AA
330
1F
100
AcDbEntity
  8
Layer 1
 62
     7
420
 16777215
370
    18
100
AcDbSpline
210
0.0
220
0.0
230
1.0
 70
     8
 71
     3
 72
    14
 73
    10
 74
     0
 42
0.0000000001
 43
0.0000000001
 12
1.0
 22
0.0
 32
0.0
 13
1.0
 23
0.0
 33
0.0
 40
0.0
 40
0.0
 40
0.0
 40
0.0
 40
1.0
 40
1.0
 40
1.0
 40
2.0
 40
2.0
 40
2.0
 40
3.0
 40
3.0
 40
3.0
 40
3.0
 10
303.6938839594441
 20
373.0856683676557
 30
0.0
 10
304.9738991894101
 20
372.5480787674114
 30
0.0
 10
306.5853851573838
 20
372.7113678579044
 30
0.0
 10
307.1288666995242
 20
374.4790079373852
 30
0.0
 10
308.225818754383
 20
378.036712316014
 30
0.0
 10
312.026316275058
 20
392.3871936209453
 30
0.0
 10
312.7738582161783
 20
395.0438520819989
 30
0.0
 10
313.3709540289783
 20
397.1521364438941
 30
0.0
 10
311.8640622644925
 20
398.4631378683134
 30
0.0
 10
310.2961857993851
 20
398.2252578162024
 30
0.0
  0
POLYLINE
  5
AB
330
1F
100
AcDbEntity
  8
Layer 1
 62
     7
420
 16777215
370
    30
100
AcDb2dPolyline
 66
     1
 10
0.0
 20
0.0
 30
0.0
  0
VERTEX
  5
AC
330
AB
100
AcDbEntity
  8
Layer 1
 62
     7
420
 16777215
370
    30
100
AcDbVertex
100
AcDb2dVertex
 10
381.0358330212093
 20
508.1544700799604
 30
0.0
  0
VERTEX
  5
AD
330
AB
100
AcDbEntity
  8
Layer 1
 62
     7
420
 16777215
370
    30
100
AcDbVertex
100
AcDb2dVertex
 10
378.6847555172717
 20
512.5233196409508
 30
0.0
  0
SEQEND
  5
AE
330
AB
100
AcDbEntity
  8
Layer 1
 62
     7
420
 16777215
370
    30
  0
POLYLINE
  5
AF
330
1F
100
AcDbEntity
  8
Layer 1
 62
     7
420
 16777215
370
    30
100
AcDb2dPolyline
 66
     1
 10
0.0
 20
0.0
 30
0.0
  0
VERTEX
  5
B0
330
AF
100
AcDbEntity
  8
Layer 1
 62
     7
420
 16777215
370
    30
100
AcDbVertex
100
AcDb2dVertex
 10
424.3453593187296
 20
425.3585643001607
 30
0.0
  0
VERTEX
  5
B1
330
AF
100
AcDbEntity
  8
Layer 1
 62
     7
420
 16777215
370
    30
100
AcDbVertex
100
AcDb2dVertex
 10
421.9922432493677
 20
429.7273926427933
 30
0.0
  0
SEQEND
  5
B2
330
AF
100
AcDbEntity
  8
Layer 1
 62
     7
420
 16777215
370
    30
  0
POLYLINE
  5
B3
330
1F
100
AcDbEntity
  8
Layer 1
  6
AI-Linetype-1
 62
     7
420
 16777215
370
    30
100
AcDb2dPolyline
 66
     1
 10
0.0
 20
0.0
 30
0.0
  0
VERTEX
  5
B4
330
B3
100
AcDbEntity
  8
Layer 1
  6
AI-Linetype-1
 62
     7
420
 16777215
370
    30
100
AcDbVertex
100
AcDb2dVertex
 10
306.4779527595192
 20
286.3031029277445
 30
0.0
  0
VERTEX
  5
B5
330
B3
100
AcDbEntity
  8
Layer 1
  6
AI-Linetype-1
 62
     7
420
 16777215
370
    30
100
AcDbVertex
100
AcDb2dVertex
 10
308.2506892525616
 20
291.8414774727025
 30
0.0
  0
VERTEX
  5
B6
330
B3
100
AcDbEntity
  8
Layer 1
  6
AI-Linetype-1
 62
     7
420
 16777215
370
    30
100
AcDbVertex
100
AcDb2dVertex
 10
343.2447033274875
 20
351.5371965079412
 30
0.0
  0
VERTEX
  5
B7
330
B3
100
AcDbEntity
  8
Layer 1
  6
AI-Linetype-1
 62
     7
420
 16777215
370
    30
100
AcDbVertex
100
AcDb2dVertex
 10
341.2897190855056
 20
353.3329687902788
 30
0.0
  0
VERTEX
  5
B8
330
B3
100
AcDbEntity
  8
Layer 1
  6
AI-Linetype-1
 62
     7
420
 16777215
370
    30
100
AcDbVertex
100
AcDb2dVertex
 10
342.3648584903258
 20
355.1405647520769
 30
0.0
  0
VERTEX
  5
B9
330
B3
100
AcDbEntity
  8
Layer 1
  6
AI-Linetype-1
 62
     7
420
 16777215
370
    30
100
AcDbVertex
100
AcDb2dVertex
 10
348.7633037878295
 20
351.6189429814585
 30
0.0
  0
VERTEX
  5
BA
330
B3
100
AcDbEntity
  8
Layer 1
  6
AI-Linetype-1
 62
     7
420
 16777215
370
    30
100
AcDbVertex
100
AcDb2dVertex
 10
347.5309909887928
 20
349.6460193637413
 30
0.0
  0
VERTEX
  5
BB
330
B3
100
AcDbEntity
  8
Layer 1
  6
AI-Linetype-1
 62
     7
420
 16777215
370
    30
100
AcDbVertex
100
AcDb2dVertex
 10
345.7293068667241
 20
350.5617429523754
 30
0.0
  0
VERTEX
  5
BC
330
B3
100
AcDbEntity
  8
Layer 1
  6
AI-Linetype-1
 62
     7
420
 16777215
370
    30
100
AcDbVertex
100
AcDb2dVertex
 10
310.7412046315276
 20
289.4944770996117
 30
0.0
  0
VERTEX
  5
BD
330
B3
100
AcDbEntity
  8
Layer 1
  6
AI-Linetype-1
 62
     7
420
 16777215
370
    30
100
AcDbVertex
100
AcDb2dVertex
 10
306.4779527595192
 20
286.3031029277445
 30
0.0
  0
SEQEND
  5
C0
330
B3
100
AcDbEntity
  8
Layer 1
  6
AI-Linetype-1
 62
     7
420
 16777215
370
    30
  0
HATCH
  5
BF
330
1F
100
AcDbEntity
  8
Layer 1
 62
   254
420
 16376262
100
AcDbHatch
 10
0.0
 20
0.0
 30
0.0
210
0.0
220
0.0
230
1.0
  2
SOLID
 70
     1
 71
     0
 91
        1
 92
        1
 93
        9
 72
     1
 10
306.4779527595192
 20
286.3031029277445
 11
308.2506892525616
 21
291.8414774727025
 72
     1
 10
308.2506892525616
 20
291.8414774727025
 11
343.2447033274875
 21
351.5371965079412
 72
     1
 10
343.2447033274875
 20
351.5371965079412
 11
341.2897190855056
 21
353.3329687902788
 72
     1
 10
341.2897190855056
 20
353.3329687902788
 11
342.3648584903258
 21
355.1405647520769
 72
     1
 10
342.3648584903258
 20
355.1405647520769
 11
348.7633037878295
 21
351.6189429814585
 72
     1
 10
348.7633037878295
 20
351.6189429814585
 11
347.5309909887928
 21
349.6460193637413
 72
     1
 10
347.5309909887928
 20
349.6460193637413
 11
345.7293068667241
 21
350.5617429523754
 72
     1
 10
345.7293068667241
 20
350.5617429523754
 11
310.7412046315276
 21
289.4944770996117
 72
     1
 10
310.7412046315276
 20
289.4944770996117
 11
306.4779527595192
 21
286.3031029277445
 97
        0
 75
     2
 76
     1
 98
        0
  0
POLYLINE
  5
C1
330
1F
100
AcDbEntity
  8
Layer 1
  6
AI-Linetype-2
 62
     7
420
 16777215
370
    30
100
AcDb2dPolyline
 66
     1
 10
0.0
 20
0.0
 30
0.0
  0
VERTEX
  5
C2
330
C1
100
AcDbEntity
  8
Layer 1
  6
AI-Linetype-2
 62
     7
420
 16777215
370
    30
100
AcDbVertex
100
AcDb2dVertex
 10
277.213326809815
 20
326.4891392820264
 30
0.0
  0
VERTEX
  5
C3
330
C1
100
AcDbEntity
  8
Layer 1
  6
AI-Linetype-2
 62
     7
420
 16777215
370
    30
100
AcDbVertex
100
AcDb2dVertex
 10
321.7343725390456
 20
282.4530858755188
 30
0.0
  0
VERTEX
  5
C4
330
C1
100
AcDbEntity
  8
Layer 1
  6
AI-Linetype-2
 62
     7
420
 16777215
370
    30
100
AcDbVertex
100
AcDb2dVertex
 10
323.2653351727549
 20
278.6625597171624
 30
0.0
  0
VERTEX
  5
C5
330
C1
100
AcDbEntity
  8
Layer 1
  6
AI-Linetype-2
 62
     7
420
 16777215
370
    30
100
AcDbVertex
100
AcDb2dVertex
 10
320.2013713399119
 20
279.7097707756675
 30
0.0
  0
VERTEX
  5
C6
330
C1
100
AcDbEntity
  8
Layer 1
  6
AI-Linetype-2
 62
     7
420
 16777215
370
    30
100
AcDbVertex
100
AcDb2dVertex
 10
277.2950732833333
 20
322.941627730519
 30
0.0
  0
VERTEX
  5
C7
330
C1
100
AcDbEntity
  8
Layer 1
  6
AI-Linetype-2
 62
     7
420
 16777215
370
    30
100
AcDbVertex
100
AcDb2dVertex
 10
277.213326809815
 20
326.4891392820264
 30
0.0
  0
SEQEND
  5
CA
330
C1
100
AcDbEntity
  8
Layer 1
  6
AI-Linetype-2
 62
     7
420
 16777215
370
    30
  0
HATCH
  5
C9
330
1F
100
AcDbEntity
  8
Layer 1
 62
   254
420
 16376262
100
AcDbHatch
 10
0.0
 20
0.0
 30
0.0
210
0.0
220
0.0
230
1.0
  2
SOLID
 70
     1
 71
     0
 91
        1
 92
        1
 93
        5
 72
     1
 10
277.213326809815
 20
326.4891392820264
 11
321.7343725390456
 21
282.4530858755188
 72
     1
 10
321.7343725390456
 20
282.4530858755188
 11
323.2653351727549
 21
278.6625597171624
 72
     1
 10
323.2653351727549
 20
278.6625597171624
 11
320.2013713399119
 21
279.7097707756675
 72
     1
 10
320.2013713399119
 20
279.7097707756675
 11
277.2950732833333
 21
322.941627730519
 72
     1
 10
277.2950732833333
 20
322.941627730519
 11
277.213326809815
 21
326.4891392820264
 97
        0
 75
     2
 76
     1
 98
        0
  0
POLYLINE
  5
CB
330
1F
100
AcDbEntity
  8
Layer 1
  6
AI-Linetype-3
 62
     7
420
 16777215
370
    30
100
AcDb2dPolyline
 66
     1
 10
0.0
 20
0.0
 30
0.0
  0
VERTEX
  5
CC
330
CB
100
AcDbEntity
  8
Layer 1
  6
AI-Linetype-3
 62
     7
420
 16777215
370
    30
100
AcDbVertex
100
AcDb2dVertex
 10
302.0554889278665
 20
342.4592608166295
 30
0.0
  0
VERTEX
  5
CD
330
CB
100
AcDbEntity
  8
Layer 1
  6
AI-Linetype-3
 62
     7
420
 16777215
370
    30
100
AcDbVertex
100
AcDb2dVertex
 10
302.1360278135953
 20
277.6950740548164
 30
0.0
  0
VERTEX
  5
CE
330
CB
100
AcDbEntity
  8
Layer 1
  6
AI-Linetype-3
 62
     7
420
 16777215
370
    30
100
AcDbVertex
100
AcDb2dVertex
 10
303.7485331050157
 20
274.1455064498186
 30
0.0
  0
VERTEX
  5
CF
330
CB
100
AcDbEntity
  8
Layer 1
  6
AI-Linetype-3
 62
     7
420
 16777215
370
    30
100
AcDbVertex
100
AcDb2dVertex
 10
305.2815343428756
 20
277.774578108374
 30
0.0
  0
VERTEX
  5
D0
330
CB
100
AcDbEntity
  8
Layer 1
  6
AI-Linetype-3
 62
     7
420
 16777215
370
    30
100
AcDbVertex
100
AcDb2dVertex
 10
305.2815343428756
 20
342.5389687247225
 30
0.0
  0
VERTEX
  5
D1
330
CB
100
AcDbEntity
  8
Layer 1
  6
AI-Linetype-3
 62
     7
420
 16777215
370
    30
100
AcDbVertex
100
AcDb2dVertex
 10
302.0554889278665
 20
342.4592608166295
 30
0.0
  0
SEQEND
  5
D4
330
CB
100
AcDbEntity
  8
Layer 1
  6
AI-Linetype-3
 62
     7
420
 16777215
370
    30
  0
HATCH
  5
D3
330
1F
100
AcDbEntity
  8
Layer 1
 62
   254
420
 16376262
100
AcDbHatch
 10
0.0
 20
0.0
 30
0.0
210
0.0
220
0.0
230
1.0
  2
SOLID
 70
     1
 71
     0
 91
        1
 92
        1
 93
        5
 72
     1
 10
302.0554889278665
 20
342.4592608166295
 11
302.1360278135953
 21
277.6950740548164
 72
     1
 10
302.1360278135953
 20
277.6950740548164
 11
303.7485331050157
 21
274.1455064498186
 72
     1
 10
303.7485331050157
 20
274.1455064498186
 11
305.2815343428756
 21
277.774578108374
 72
     1
 10
305.2815343428756
 20
277.774578108374
 11
305.2815343428756
 21
342.5389687247225
 72
     1
 10
305.2815343428756
 20
342.5389687247225
 11
302.0554889278665
 21
342.4592608166295
 97
        0
 75
     2
 76
     1
 98
        0
  0
SPLINE
  5
D5
330
1F
100
AcDbEntity
  8
Layer 1
 62
     7
420
 16777215
370
    40
100
AcDbSpline
210
0.0
220
0.0
230
1.0
 70
    11
 71
     3
 72
    74
 73
    70
 74
     0
 42
0.0000000001
 43
0.0000000001
 12
1.0
 22
0.0
 32
0.0
 13
1.0
 23
0.0
 33
0.0
 40
0.0
 40
0.0
 40
0.0
 40
0.0
 40
1.0
 40
1.0
 40
1.0
 40
2.0
 40
2.0
 40
2.0
 40
3.0
 40
3.0
 40
3.0
 40
4.0
 40
4.0
 40
4.0
 40
5.0
 40
5.0
 40
5.0
 40
6.0
 40
6.0
 40
6.0
 40
7.0
 40
7.0
 40
7.0
 40
8.0
 40
8.0
 40
8.0
 40
9.0
 40
9.0
 40
9.0
 40
10.0
 40
10.0
 40
10.0
 40
11.0
 40
11.0
 40
11.0
 40
12.0
 40
12.0
 40
12.0
 40
13.0
 40
13.0
 40
13.0
 40
14.0
 40
14.0
 40
14.0
 40
15.0
 40
15.0
 40
15.0
 40
16.0
 40
16.0
 40
16.0
 40
17.0
 40
17.0
 40
17.0
 40
18.0
 40
18.0
 40
18.0
 40
19.0
 40
19.0
 40
19.0
 40
20.0
 40
20.0
 40
20.0
 40
21.0
 40
21.0
 40
21.0
 40
22.0
 40
22.0
 40
22.0
 40
23.0
 40
23.0
 40
23.0
 40
23.0
 10
275.2783205089927
 20
313.6645241972456
 30
0.0
 10
275.2783205089927
 20
311.8907684214901
 30
0.0
 10
277.213326809815
 20
311.8092258045144
 30
0.0
 10
277.213326809815
 20
313.5053122376012
 30
0.0
 10
277.213326809815
 20
315.1975253963792
 30
0.0
 10
277.0520762847464
 20
339.5547127999707
 30
0.0
 10
277.0520762847464
 20
340.8467555659445
 30
0.0
 10
277.0520762847464
 20
342.1367597664921
 30
0.0
 10
277.9400753836089
 20
342.4592608166295
 30
0.0
 10
279.552580634293
 20
342.4592608166295
 30
0.0
 10
281.1661051676901
 20
342.4592608166295
 30
0.0
 10
344.4790713130915
 20
342.6184727762738
 30
0.0
 10
346.6570579913605
 20
342.6184727762738
 30
0.0
 10
348.8348574342272
 20
342.6184727762738
 30
0.0
 10
350.0433190177991
 20
342.5389687247225
 30
0.0
 10
350.527070593007
 20
344.3942671174518
 30
0.0
 10
350.8277589931022
 20
345.5450372995147
 30
0.0
 10
350.6067785010982
 20
346.4110391157665
 30
0.0
 10
350.1248616347748
 20
347.296980425228
 30
0.0
 10
349.639275350688
 20
348.184775667547
 30
0.0
 10
348.8348574342272
 20
350.2015284418849
 30
0.0
 10
350.527070593007
 20
352.136534742709
 30
0.0
 10
350.6067785010982
 20
352.136534742709
 30
0.0
 10
330.6072285486644
 20
372.3809164026115
 30
0.0
 10
330.0419506129092
 20
373.0259185028863
 30
0.0
 10
328.7519301559369
 20
372.3809164026115
 30
0.0
 10
326.816719998571
 20
371.4929173037508
 30
0.0
 10
326.008632664345
 20
372.2194620210012
 30
0.0
 10
325.2021761824599
 20
372.9462105947914
 30
0.0
 10
323.1856272646637
 20
373.4279236045732
 30
0.0
 10
321.8956230641143
 20
372.7034174527489
 30
0.0
 10
320.6056188635648
 20
371.978727314252
 30
0.0
 10
318.0892137037099
 20
370.6328465512051
 30
0.0
 10
317.2968392577095
 20
370.1232051951083
 30
0.0
 10
316.1701082131967
 20
369.3966604778598
 30
0.0
 10
317.0560687466332
 20
367.6229047021061
 30
0.0
 10
318.2663650390896
 20
368.267906802379
 30
0.0
 10
319.4748266226616
 20
368.9129089026537
 30
0.0
 10
320.848412005611
 20
369.7191615279971
 30
0.0
 10
321.6526260655282
 20
370.1232051951083
 30
0.0
 10
322.4609172562959
 20
370.5254141533405
 30
0.0
 10
323.9939184554296
 20
370.8479152034779
 30
0.0
 10
325.0409256573912
 20
369.8007041449728
 30
0.0
 10
326.0881367158963
 20
368.7516781659342
 30
0.0
 10
345.9303094175684
 20
348.5072767176825
 30
0.0
 10
347.2203136181179
 20
347.2172725171349
 30
0.0
 10
348.5123563840898
 20
345.9272683165855
 30
0.0
 10
349.5595674425931
 20
344.4739750255449
 30
0.0
 10
346.4937689008675
 20
344.4739750255449
 30
0.0
 10
343.8299754608288
 20
344.4739750255449
 30
0.0
 10
279.6331039685556
 20
344.4739750255449
 30
0.0
 10
278.2625764337445
 20
344.4739750255449
 30
0.0
 10
276.8908257596777
 20
344.4739750255449
 30
0.0
 10
275.2783205089927
 20
343.6697609656258
 30
0.0
 10
275.2783205089927
 20
342.0552171495165
 30
0.0
 10
275.2783205089927
 20
341.2927936807973
 30
0.0
 10
275.2783205089927
 20
324.8786725967657
 30
0.0
 10
275.2783205089927
 20
324.1519426846371
 30
0.0
 10
273.6658152583068
 20
326.4932164128768
 30
0.0
 10
271.8103277944074
 20
327.4607195632871
 30
0.0
 10
271.8103277944074
 20
327.4607195632871
 30
0.0
 10
271.8103277944074
 20
327.4607195632871
 30
0.0
 10
270.5093005551953
 20
326.0871341803395
 30
0.0
 10
270.5093005551953
 20
326.0871341803395
 30
0.0
 10
270.5093005551953
 20
326.0871341803395
 30
0.0
 10
275.2783205089927
 20
321.9741245801069
 30
0.0
 10
275.2783205089927
 20
320.5249084199149
 30
0.0
 10
275.2783205089927
 20
319.0716151288743
 30
0.0
 10
275.2783205089927
 20
313.8755341207307
 30
0.0
 10
275.2783205089927
 20
313.6645241972456
 30
0.0
  0
HATCH
  5
D6
330
1F
100
AcDbEntity
  8
Layer 1
 62
   254
420
 13358815
100
AcDbHatch
 10
0.0
 20
0.0
 30
0.0
210
0.0
220
0.0
230
1.0
  2
SOLID
 70
     1
 71
     0
 91
        1
 92
        1
 93
        1
 72
     4
 94
        3
 73
     0
 74
     1
 95
       74
 96
       70
 40
0.0
 40
0.0
 40
0.0
 40
0.0
 40
1.0
 40
1.0
 40
1.0
 40
2.0
 40
2.0
 40
2.0
 40
3.0
 40
3.0
 40
3.0
 40
4.0
 40
4.0
 40
4.0
 40
5.0
 40
5.0
 40
5.0
 40
6.0
 40
6.0
 40
6.0
 40
7.0
 40
7.0
 40
7.0
 40
8.0
 40
8.0
 40
8.0
 40
9.0
 40
9.0
 40
9.0
 40
10.0
 40
10.0
 40
10.0
 40
11.0
 40
11.0
 40
11.0
 40
12.0
 40
12.0
 40
12.0
 40
13.0
 40
13.0
 40
13.0
 40
14.0
 40
14.0
 40
14.0
 40
15.0
 40
15.0
 40
15.0
 40
16.0
 40
16.0
 40
16.0
 40
17.0
 40
17.0
 40
17.0
 40
18.0
 40
18.0
 40
18.0
 40
19.0
 40
19.0
 40
19.0
 40
20.0
 40
20.0
 40
20.0
 40
21.0
 40
21.0
 40
21.0
 40
22.0
 40
22.0
 40
22.0
 40
23.0
 40
23.0
 40
23.0
 40
23.0
 10
275.2783205089927
 20
313.6645241972456
 10
275.2783205089927
 20
311.8907684214901
 10
277.213326809815
 20
311.8092258045144
 10
277.213326809815
 20
313.5053122376012
 10
277.213326809815
 20
315.1975253963792
 10
277.0520762847464
 20
339.5547127999707
 10
277.0520762847464
 20
340.8467555659445
 10
277.0520762847464
 20
342.1367597664921
 10
277.9400753836089
 20
342.4592608166295
 10
279.552580634293
 20
342.4592608166295
 10
281.1661051676901
 20
342.4592608166295
 10
344.4790713130915
 20
342.6184727762738
 10
346.6570579913605
 20
342.6184727762738
 10
348.8348574342272
 20
342.6184727762738
 10
350.0433190177991
 20
342.5389687247225
 10
350.527070593007
 20
344.3942671174518
 10
350.8277589931022
 20
345.5450372995147
 10
350.6067785010982
 20
346.4110391157665
 10
350.1248616347748
 20
347.296980425228
 10
349.639275350688
 20
348.184775667547
 10
348.8348574342272
 20
350.2015284418849
 10
350.527070593007
 20
352.136534742709
 10
350.6067785010982
 20
352.136534742709
 10
330.6072285486644
 20
372.3809164026115
 10
330.0419506129092
 20
373.0259185028863
 10
328.7519301559369
 20
372.3809164026115
 10
326.816719998571
 20
371.4929173037508
 10
326.008632664345
 20
372.2194620210012
 10
325.2021761824599
 20
372.9462105947914
 10
323.1856272646637
 20
373.4279236045732
 10
321.8956230641143
 20
372.7034174527489
 10
320.6056188635648
 20
371.978727314252
 10
318.0892137037099
 20
370.6328465512051
 10
317.2968392577095
 20
370.1232051951083
 10
316.1701082131967
 20
369.3966604778598
 10
317.0560687466332
 20
367.6229047021061
 10
318.2663650390896
 20
368.267906802379
 10
319.4748266226616
 20
368.9129089026537
 10
320.848412005611
 20
369.7191615279971
 10
321.6526260655282
 20
370.1232051951083
 10
322.4609172562959
 20
370.5254141533405
 10
323.9939184554296
 20
370.8479152034779
 10
325.0409256573912
 20
369.8007041449728
 10
326.0881367158963
 20
368.7516781659342
 10
345.9303094175684
 20
348.5072767176825
 10
347.2203136181179
 20
347.2172725171349
 10
348.5123563840898
 20
345.9272683165855
 10
349.5595674425931
 20
344.4739750255449
 10
346.4937689008675
 20
344.4739750255449
 10
343.8299754608288
 20
344.4739750255449
 10
279.6331039685556
 20
344.4739750255449
 10
278.2625764337445
 20
344.4739750255449
 10
276.8908257596777
 20
344.4739750255449
 10
275.2783205089927
 20
343.6697609656258
 10
275.2783205089927
 20
342.0552171495165
 10
275.2783205089927
 20
341.2927936807973
 10
275.2783205089927
 20
324.8786725967657
 10
275.2783205089927
 20
324.1519426846371
 10
273.6658152583068
 20
326.4932164128768
 10
271.8103277944074
 20
327.4607195632871
 10
271.8103277944074
 20
327.4607195632871
 10
271.8103277944074
 20
327.4607195632871
 10
270.5093005551953
 20
326.0871341803395
 10
270.5093005551953
 20
326.0871341803395
 10
270.5093005551953
 20
326.0871341803395
 10
275.2783205089927
 20
321.9741245801069
 10
275.2783205089927
 20
320.5249084199149
 10
275.2783205089927
 20
319.0716151288743
 10
275.2783205089927
 20
313.8755341207307
 10
275.2783205089927
 20
313.6645241972456
 97
        0
 97
        0
 75
     2
 76
     1
 98
        0
  0
POLYLINE
  5
D7
330
1F
100
AcDbEntity
  8
Layer 1
 62
     7
420
 16777215
370
    30
100
AcDb2dPolyline
 66
     1
 10
0.0
 20
0.0
 30
0.0
  0
VERTEX
  5
D8
330
D7
100
AcDbEntity
  8
Layer 1
 62
     7
420
 16777215
370
    30
100
AcDbVertex
100
AcDb2dVertex
 10
337.9931549377416
 20
342.6345774431265
 30
0.0
  0
VERTEX
  5
D9
330
D7
100
AcDbEntity
  8
Layer 1
 62
     7
420
 16777215
370
    30
100
AcDbVertex
100
AcDb2dVertex
 10
343.2447033274875
 20
351.5371965079412
 30
0.0
  0
VERTEX
  5
DA
330
D7
100
AcDbEntity
  8
Layer 1
 62
     7
420
 16777215
370
    30
100
AcDbVertex
100
AcDb2dVertex
 10
341.2897190855056
 20
353.3329687902788
 30
0.0
  0
VERTEX
  5
DB
330
D7
100
AcDbEntity
  8
Layer 1
 62
     7
420
 16777215
370
    30
100
AcDbVertex
100
AcDb2dVertex
 10
342.3648584903258
 20
355.1405647520769
 30
0.0
  0
VERTEX
  5
DC
330
D7
100
AcDbEntity
  8
Layer 1
 62
     7
420
 16777215
370
    30
100
AcDbVertex
100
AcDb2dVertex
 10
348.7633037878295
 20
351.6189429814585
 30
0.0
  0
VERTEX
  5
DD
330
D7
100
AcDbEntity
  8
Layer 1
 62
     7
420
 16777215
370
    30
100
AcDbVertex
100
AcDb2dVertex
 10
347.5309909887928
 20
349.6460193637413
 30
0.0
  0
VERTEX
  5
DE
330
D7
100
AcDbEntity
  8
Layer 1
 62
     7
420
 16777215
370
    30
100
AcDbVertex
100
AcDb2dVertex
 10
345.7293068667241
 20
350.5617429523754
 30
0.0
  0
VERTEX
  5
DF
330
D7
100
AcDbEntity
  8
Layer 1
 62
     7
420
 16777215
370
    30
100
AcDbVertex
100
AcDb2dVertex
 10
341.2281544096913
 20
342.7061310895224
 30
0.0
  0
VERTEX
  5
E0
330
D7
100
AcDbEntity
  8
Layer 1
 62
     7
420
 16777215
370
    30
100
AcDbVertex
100
AcDb2dVertex
 10
337.9931549377416
 20
342.6345774431265
 30
0.0
  0
SEQEND
  5
E1
330
D7
100
AcDbEntity
  8
Layer 1
 62
     7
420
 16777215
370
    30
  0
SPLINE
  5
E2
330
1F
100
AcDbEntity
  8
Layer 1
 62
     7
420
 16777215
370
    30
100
AcDbSpline
210
0.0
220
0.0
230
1.0
 70
    11
 71
     3
 72
    17
 73
    13
 74
     0
 42
0.0000000001
 43
0.0000000001
 12
1.0
 22
0.0
 32
0.0
 13
1.0
 23
0.0
 33
0.0
 40
0.0
 40
0.0
 40
0.0
 40
0.0
 40
1.0
 40
1.0
 40
1.0
 40
2.0
 40
2.0
 40
2.0
 40
3.0
 40
3.0
 40
3.0
 40
4.0
 40
4.0
 40
4.0
 40
4.0
 10
315.6445660467925
 20
412.9989247703215
 30
0.0
 10
317.2091809422473
 20
412.9979054876094
 30
0.0
 10
318.7480780488695
 20
414.1176894752234
 30
0.0
 10
319.0805840491048
 20
415.4992252633247
 30
0.0
 10
319.413058090302
 20
416.8817803341399
 30
0.0
 10
318.4137533192697
 20
418.0025836044642
 30
0.0
 10
316.8489504995159
 20
418.0036028871773
 30
0.0
 10
315.2841476797621
 20
418.0046221698885
 30
0.0
 10
313.7452346408954
 20
416.8858574649894
 30
0.0
 10
313.4147831856026
 20
415.5033023941733
 30
0.0
 10
313.0804584560046
 20
414.1205434668154
 30
0.0
 10
314.0797632270369
 20
412.9997401964911
 30
0.0
 10
315.6445660467925
 20
412.9989247703215
 30
0.0
  0
HATCH
  5
E3
330
1F
100
AcDbEntity
  8
Layer 1
 62
     7
420
 16777215
100
AcDbHatch
 10
0.0
 20
0.0
 30
0.0
210
0.0
220
0.0
230
1.0
  2
SOLID
 70
     1
 71
     0
 91
        1
 92
        1
 93
        1
 72
     4
 94
        3
 73
     0
 74
     1
 95
       17
 96
       13
 40
0.0
 40
0.0
 40
0.0
 40
0.0
 40
1.0
 40
1.0
 40
1.0
 40
2.0
 40
2.0
 40
2.0
 40
3.0
 40
3.0
 40
3.0
 40
4.0
 40
4.0
 40
4.0
 40
4.0
 10
315.6445660467925
 20
412.9989247703215
 10
317.2091809422473
 20
412.9979054876094
 10
318.7480780488695
 20
414.1176894752234
 10
319.0805840491048
 20
415.4992252633247
 10
319.413058090302
 20
416.8817803341399
 10
318.4137533192697
 20
418.0025836044642
 10
316.8489504995159
 20
418.0036028871773
 10
315.2841476797621
 20
418.0046221698885
 10
313.7452346408954
 20
416.8858574649894
 10
313.4147831856026
 20
415.5033023941733
 10
313.0804584560046
 20
414.1205434668154
 10
314.0797632270369
 20
412.9997401964911
 10
315.6445660467925
 20
412.9989247703215
 97
        0
 97
        0
 75
     2
 76
     1
 98
        0
  0
SPLINE
  5
E4
330
1F
100
AcDbEntity
  8
Layer 1
 62
     7
420
 16777215
370
    30
100
AcDbSpline
210
0.0
220
0.0
230
1.0
 70
    11
 71
     3
 72
    17
 73
    13
 74
     0
 42
0.0000000001
 43
0.0000000001
 12
1.0
 22
0.0
 32
0.0
 13
1.0
 23
0.0
 33
0.0
 40
0.0
 40
0.0
 40
0.0
 40
0.0
 40
1.0
 40
1.0
 40
1.0
 40
2.0
 40
2.0
 40
2.0
 40
3.0
 40
3.0
 40
3.0
 40
4.0
 40
4.0
 40
4.0
 40
4.0
 10
315.085183694342
 20
413.6706320776548
 30
0.0
 10
316.6497826575542
 20
413.6698166514852
 30
0.0
 10
318.1886956964208
 20
414.7896006390984
 30
0.0
 10
318.5191471517119
 20
416.1711364272014
 30
0.0
 10
318.8536757378533
 20
417.5536914980166
 30
0.0
 10
317.8543709668211
 20
418.674494768341
 30
0.0
 10
316.2895681470654
 20
418.6755140510531
 30
0.0
 10
314.7247653273116
 20
418.6775526164765
 30
0.0
 10
313.1858522884468
 20
417.5577686288652
 30
0.0
 10
312.8533622677296
 20
416.17521355805
 30
0.0
 10
312.5208722470124
 20
414.7934739134043
 30
0.0
 10
313.5203808745864
 20
413.6716513603669
 30
0.0
 10
315.085183694342
 20
413.6706320776548
 30
0.0
  0
HATCH
  5
E5
330
1F
100
AcDbEntity
  8
Layer 1
 62
   254
420
 13358815
100
AcDbHatch
 10
0.0
 20
0.0
 30
0.0
210
0.0
220
0.0
230
1.0
  2
SOLID
 70
     1
 71
     0
 91
        1
 92
        1
 93
        1
 72
     4
 94
        3
 73
     0
 74
     1
 95
       17
 96
       13
 40
0.0
 40
0.0
 40
0.0
 40
0.0
 40
1.0
 40
1.0
 40
1.0
 40
2.0
 40
2.0
 40
2.0
 40
3.0
 40
3.0
 40
3.0
 40
4.0
 40
4.0
 40
4.0
 40
4.0
 10
315.085183694342
 20
413.6706320776548
 10
316.6497826575542
 20
413.6698166514852
 10
318.1886956964208
 20
414.7896006390984
 10
318.5191471517119
 20
416.1711364272014
 10
318.8536757378533
 20
417.5536914980166
 10
317.8543709668211
 20
418.674494768341
 10
316.2895681470654
 20
418.6755140510531
 10
314.7247653273116
 20
418.6775526164765
 10
313.1858522884468
 20
417.5577686288652
 10
312.8533622677296
 20
416.17521355805
 10
312.5208722470124
 20
414.7934739134043
 10
313.5203808745864
 20
413.6716513603669
 10
315.085183694342
 20
413.6706320776548
 97
        0
 97
        0
 75
     2
 76
     1
 98
        0
  0
POLYLINE
  5
E6
330
1F
100
AcDbEntity
  8
Layer 1
  6
AI-Linetype-4
 62
     7
420
 16777215
370
    30
100
AcDb2dPolyline
 66
     1
 10
0.0
 20
0.0
 30
0.0
  0
VERTEX
  5
E7
330
E6
100
AcDbEntity
  8
Layer 1
  6
AI-Linetype-4
 62
     7
420
 16777215
370
    30
100
AcDbVertex
100
AcDb2dVertex
 10
322.6282834776357
 20
401.1895152668812
 30
0.0
  0
VERTEX
  5
E8
330
E6
100
AcDbEntity
  8
Layer 1
  6
AI-Linetype-4
 62
     7
420
 16777215
370
    30
100
AcDbVertex
100
AcDb2dVertex
 10
328.5966076905133
 20
391.1887210079531
 30
0.0
  0
VERTEX
  5
E9
330
E6
100
AcDbEntity
  8
Layer 1
  6
AI-Linetype-4
 62
     7
420
 16777215
370
    30
100
AcDbVertex
100
AcDb2dVertex
 10
331.6603514469007
 20
389.0119408477985
 30
0.0
  0
VERTEX
  5
EA
330
E6
100
AcDbEntity
  8
Layer 1
  6
AI-Linetype-4
 62
     7
420
 16777215
370
    30
100
AcDbVertex
100
AcDb2dVertex
 10
331.2563077797877
 20
392.8012262586381
 30
0.0
  0
VERTEX
  5
EB
330
E6
100
AcDbEntity
  8
Layer 1
  6
AI-Linetype-4
 62
     7
420
 16777215
370
    30
100
AcDbVertex
100
AcDb2dVertex
 10
323.6752906795991
 20
405.706568534225
 30
0.0
  0
SEQEND
  5
EE
330
E6
100
AcDbEntity
  8
Layer 1
  6
AI-Linetype-4
 62
     7
420
 16777215
370
    30
  0
HATCH
  5
ED
330
1F
100
AcDbEntity
  8
Layer 1
 62
   254
420
 16376262
100
AcDbHatch
 10
0.0
 20
0.0
 30
0.0
210
0.0
220
0.0
230
1.0
  2
SOLID
 70
     1
 71
     0
 91
        1
 92
        1
 93
        5
 72
     1
 10
322.6282834776357
 20
401.1895152668812
 11
328.5966076905133
 21
391.1887210079531
 72
     1
 10
328.5966076905133
 20
391.1887210079531
 11
331.6603514469007
 21
389.0119408477985
 72
     1
 10
331.6603514469007
 20
389.0119408477985
 11
331.2563077797877
 21
392.8012262586381
 72
     1
 10
331.2563077797877
 20
392.8012262586381
 11
323.6752906795991
 21
405.706568534225
 72
     1
 10
323.6752906795991
 20
405.706568534225
 11
322.6282834776357
 21
401.1895152668812
 97
        0
 75
     2
 76
     1
 98
        0
  0
SPLINE
  5
EF
330
1F
100
AcDbEntity
  8
Layer 1
 62
     7
420
 16777215
370
    30
100
AcDbSpline
210
0.0
220
0.0
230
1.0
 70
    11
 71
     3
 72
    17
 73
    13
 74
     0
 42
0.0000000001
 43
0.0000000001
 12
1.0
 22
0.0
 32
0.0
 13
1.0
 23
0.0
 33
0.0
 40
0.0
 40
0.0
 40
0.0
 40
0.0
 40
1.0
 40
1.0
 40
1.0
 40
2.0
 40
2.0
 40
2.0
 40
3.0
 40
3.0
 40
3.0
 40
4.0
 40
4.0
 40
4.0
 40
4.0
 10
306.7735447460545
 20
400.7744633464772
 30
0.0
 10
307.4582988721049
 20
401.1059340844813
 30
0.0
 10
307.6943647482476
 20
401.3218387740644
 30
0.0
 10
308.3511905279829
 20
401.6663563394868
 30
0.0
 10
309.3456027419961
 20
402.1818889154702
 30
0.0
 10
308.2317305941142
 20
404.1745866178044
 30
0.0
 10
307.2383376628131
 20
403.6580348094212
 30
0.0
 10
306.2439254487999
 20
403.1414416607258
 30
0.0
 10
305.9703499688494
 20
403.0817116937933
 30
0.0
 10
305.4955837178441
 20
402.6935688369904
 30
0.0
 10
304.6544559874101
 20
402.0077954282278
 30
0.0
 10
305.8637329971552
 20
400.3335216451833
 30
0.0
 10
306.7735447460545
 20
400.7744633464772
 30
0.0
  0
HATCH
  5
F0
330
1F
100
AcDbEntity
  8
Layer 1
 62
    43
420
 15510365
100
AcDbHatch
 10
0.0
 20
0.0
 30
0.0
210
0.0
220
0.0
230
1.0
  2
SOLID
 70
     1
 71
     0
 91
        1
 92
        1
 93
        1
 72
     4
 94
        3
 73
     0
 74
     1
 95
       17
 96
       13
 40
0.0
 40
0.0
 40
0.0
 40
0.0
 40
1.0
 40
1.0
 40
1.0
 40
2.0
 40
2.0
 40
2.0
 40
3.0
 40
3.0
 40
3.0
 40
4.0
 40
4.0
 40
4.0
 40
4.0
 10
306.7735447460545
 20
400.7744633464772
 10
307.4582988721049
 20
401.1059340844813
 10
307.6943647482476
 20
401.3218387740644
 10
308.3511905279829
 20
401.6663563394868
 10
309.3456027419961
 20
402.1818889154702
 10
308.2317305941142
 20
404.1745866178044
 10
307.2383376628131
 20
403.6580348094212
 10
306.2439254487999
 20
403.1414416607258
 10
305.9703499688494
 20
403.0817116937933
 10
305.4955837178441
 20
402.6935688369904
 10
304.6544559874101
 20
402.0077954282278
 10
305.8637329971552
 20
400.3335216451833
 10
306.7735447460545
 20
400.7744633464772
 97
        0
 97
        0
 75
     2
 76
     1
 98
        0
  0
POLYLINE
  5
F1
330
1F
100
AcDbEntity
  8
Layer 1
 62
     7
420
 16777215
370
    30
100
AcDb2dPolyline
 66
     1
 10
0.0
 20
0.0
 30
0.0
  0
VERTEX
  5
F2
330
F1
100
AcDbEntity
  8
Layer 1
 62
     7
420
 16777215
370
    30
100
AcDbVertex
100
AcDb2dVertex
 10
275.2783205089927
 20
324.1519426846371
 30
0.0
  0
VERTEX
  5
F3
330
F1
100
AcDbEntity
  8
Layer 1
 62
     7
420
 16777215
370
    30
100
AcDbVertex
100
AcDb2dVertex
 10
275.2783205089927
 20
320.5249084199149
 30
0.0
  0
SEQEND
  5
F4
330
F1
100
AcDbEntity
  8
Layer 1
 62
     7
420
 16777215
370
    30
  0
POLYLINE
  5
F5
330
1F
100
AcDbEntity
  8
Layer 1
 62
     7
420
 16777215
370
    30
100
AcDb2dPolyline
 66
     1
 10
0.0
 20
0.0
 30
0.0
  0
VERTEX
  5
F6
330
F5
100
AcDbEntity
  8
Layer 1
 62
     7
420
 16777215
370
    30
100
AcDbVertex
100
AcDb2dVertex
 10
343.2447033274875
 20
351.5371965079412
 30
0.0
  0
VERTEX
  5
F7
330
F5
100
AcDbEntity
  8
Layer 1
 62
     7
420
 16777215
370
    30
100
AcDbVertex
100
AcDb2dVertex
 10
345.044348884132
 20
349.4709258950643
 30
0.0
  0
VERTEX
  5
F8
330
F5
100
AcDbEntity
  8
Layer 1
 62
     7
420
 16777215
370
    30
100
AcDbVertex
100
AcDb2dVertex
 10
342.2413214256085
 20
344.50190337186
 30
0.0
  0
VERTEX
  5
F9
330
F5
100
AcDbEntity
  8
Layer 1
 62
     7
420
 16777215
370
    30
100
AcDbVertex
100
AcDb2dVertex
 10
338.9286526109881
 20
344.50190337186
 30
0.0
  0
VERTEX
  5
FA
330
F5
100
AcDbEntity
  8
Layer 1
 62
     7
420
 16777215
370
    30
100
AcDbVertex
100
AcDb2dVertex
 10
343.2447033274875
 20
351.5371965079412
 30
0.0
  0
SEQEND
  5
FC
330
F5
100
AcDbEntity
  8
Layer 1
 62
     7
420
 16777215
370
    30
  0
HATCH
  5
FB
330
1F
100
AcDbEntity
  8
Layer 1
 62
   254
420
 13358815
100
AcDbHatch
 10
0.0
 20
0.0
 30
0.0
210
0.0
220
0.0
230
1.0
  2
SOLID
 70
     1
 71
     0
 91
        1
 92
        1
 93
        4
 72
     1
 10
343.2447033274875
 20
351.5371965079412
 11
345.044348884132
 21
349.4709258950643
 72
     1
 10
345.044348884132
 20
349.4709258950643
 11
342.2413214256085
 21
344.50190337186
 72
     1
 10
342.2413214256085
 20
344.50190337186
 11
338.9286526109881
 21
344.50190337186
 72
     1
 10
338.9286526109881
 20
344.50190337186
 11
343.2447033274875
 21
351.5371965079412
 97
        0
 75
     2
 76
     1
 98
        0
  0
SPLINE
  5
FE
330
1F
100
AcDbEntity
  8
callout
 62
     7
420
 16777215
370
    25
100
AcDbSpline
210
0.0
220
0.0
230
1.0
 70
     8
 71
     3
 72
     8
 73
     4
 74
     0
 42
0.0000000001
 43
0.0000000001
 12
1.0
 22
0.0
 32
0.0
 13
1.0
 23
0.0
 33
0.0
 40
0.0
 40
0.0
 40
0.0
 40
0.0
 40
1.0
 40
1.0
 40
1.0
 40
1.0
 10
256.3300587459116
 20
454.7436482480871
 30
0.0
 10
266.1693986232303
 20
451.5176184640059
 30
0.0
 10
288.9142846326804
 20
440.5483017719516
 30
0.0
 10
309.8841917271184
 20
421.8369213111837
 30
0.0
  0
POLYLINE
  5
FF
330
1F
100
AcDbEntity
  8
callout
370
     0
100
AcDb2dPolyline
 66
     1
 10
0.0
 20
0.0
 30
0.0
  0
VERTEX
  5
100
330
FF
100
AcDbEntity
  8
callout
370
     0
100
AcDbVertex
100
AcDb2dVertex
 10
308.1899400029142
 20
420.3856665855674
 30
0.0
  0
VERTEX
  5
101
330
FF
100
AcDbEntity
  8
callout
370
     0
100
AcDbVertex
100
AcDb2dVertex
 10
310.8516948775286
 20
423.3699225103182
 30
0.0
  0
VERTEX
  5
102
330
FF
100
AcDbEntity
  8
callout
370
     0
100
AcDbVertex
100
AcDb2dVertex
 10
313.6736809944996
 20
418.3689138112259
 30
0.0
  0
VERTEX
  5
103
330
FF
100
AcDbEntity
  8
callout
370
     0
100
AcDbVertex
100
AcDb2dVertex
 10
308.1899400029142
 20
420.3856665855674
 30
0.0
  0
SEQEND
  5
105
330
FF
100
AcDbEntity
  8
callout
370
     0
  0
HATCH
  5
104
330
1F
100
AcDbEntity
  8
callout
 62
     7
420
 16777215
100
AcDbHatch
 10
0.0
 20
0.0
 30
0.0
210
0.0
220
0.0
230
1.0
  2
SOLID
 70
     1
 71
     0
 91
        1
 92
        1
 93
        3
 72
     1
 10
308.1899400029142
 20
420.3856665855674
 11
310.8516948775286
 21
423.3699225103182
 72
     1
 10
310.8516948775286
 20
423.3699225103182
 11
313.6736809944996
 21
418.3689138112259
 72
     1
 10
313.6736809944996
 20
418.3689138112259
 11
308.1899400029142
 21
420.3856665855674
 97
        0
 75
     2
 76
     1
 98
        0
  0
MTEXT
  5
106
330
1F
100
AcDbEntity
  8
callout
 62
   250
420
  2301728
100
AcDbMText
 10
262.4745635986328
 20
232.3177642822266
 30
0.0
 40
8.495999999999999
 41
0.0
 46
0.0
 71
     7
 72
     1
  1
\fHelvetica Neue LT Std 55 Roman|b0|i0|c0|p34;\W1;SIMPSON Strong-Tie\H4.95317;®\H8.496; ^C
 73
     1
 44
1.0
  0
MTEXT
  5
107
330
1F
100
AcDbEntity
  8
callout
 62
   250
420
  2301728
100
AcDbMText
 10
242.7191925048828
 20
217.9173736572266
 30
0.0
 40
8.495999999999999
 41
0.0
 46
0.0
 71
     7
 72
     1
  1
\fHelvetica Neue LT Std 55 Roman|b0|i0|c0|p34;\W1;VPA Truss/Rafter-to-Top Plate
 73
     1
 44
1.0
  0
MTEXT
  5
108
330
1F
100
AcDbEntity
  8
callout
 62
   250
420
  2301728
100
AcDbMText
 10
181.0214080810547
 20
458.7435150146484
 30
0.0
 40
8.495999999999999
 41
0.0
 46
0.0
 71
     7
 72
     1
  1
\fHelvetica Neue LT Std 57 Condensed|b0|i0|c0|p34;\W1;38mm x 3.75mm Nails
 73
     1
 44
1.0
  0
MTEXT
  5
109
330
1F
100
AcDbEntity
  8
callout
 62
   250
420
  2236191
100
AcDbMText
 10
416.6740112304688
 20
378.1976547241211
 30
0.0
 40
8.495999999999999
 41
0.0
 46
0.0
 71
     7
 72
     1
  1
\fHelvetica Neue LT Std 57 Condensed|b0|i0|c0|p34;\W1;Truss / Rafter
 73
     1
 44
1.0
  0
POLYLINE
  5
10A
330
1F
100
AcDbEntity
  8
callout
 62
   250
420
  2236191
370
    18
100
AcDb2dPolyline
 66
     1
 10
0.0
 20
0.0
 30
0.0
  0
VERTEX
  5
10B
330
10A
100
AcDbEntity
  8
callout
 62
   250
420
  2236191
370
    18
100
AcDbVertex
100
AcDb2dVertex
 10
409.1617163248538
 20
382.986957159017
 30
0.0
  0
VERTEX
  5
10C
330
10A
100
AcDbEntity
  8
callout
 62
   250
420
  2236191
370
    18
100
AcDbVertex
100
AcDb2dVertex
 10
379.9845460676952
 20
405.706568534225
 30
0.0
  0
SEQEND
  5
10D
330
10A
100
AcDbEntity
  8
callout
 62
   250
420
  2236191
370
    18
  0
POLYLINE
  5
10E
330
1F
100
AcDbEntity
  8
callout
 62
   250
420
  2236191
370
    18
100
AcDb2dPolyline
 66
     1
 10
0.0
 20
0.0
 30
0.0
  0
VERTEX
  5
10F
330
10E
100
AcDbEntity
  8
callout
 62
   250
420
  2236191
370
    18
100
AcDbVertex
100
AcDb2dVertex
 10
409.1617163248538
 20
361.4555054096909
 30
0.0
  0
VERTEX
  5
110
330
10E
100
AcDbEntity
  8
callout
 62
   250
420
  2236191
370
    18
100
AcDbVertex
100
AcDb2dVertex
 10
384.9657794463328
 20
342.5389687247225
 30
0.0
  0
SEQEND
  5
111
330
10E
100
AcDbEntity
  8
callout
 62
   250
420
  2236191
370
    18
  0
MTEXT
  5
112
330
1F
100
AcDbEntity
  8
callout
 62
   250
420
  2236191
100
AcDbMText
 10
416.6742248535156
 20
354.9503555297852
 30
0.0
 40
8.495999999999999
 41
0.0
 46
0.0
 71
     7
 72
     1
  1
\fHelvetica Neue LT Std 57 Condensed|b0|i0|c0|p34;\W1;Top Plate
 73
     1
 44
1.0
  0
MTEXT
  5
113
330
1F
100
AcDbEntity
  8
callout
 62
   250
420
  2236191
100
AcDbMText
 10
181.0215759277344
 20
432.9806823730469
 30
0.0
 40
8.495999999999999
 41
0.0
 46
0.0
 71
     7
 72
     1
  1
\fHelvetica Neue LT Std 57 Condensed|b0|i0|c0|p34;\W1;VPA25
 73
     1
 44
1.0
  0
POLYLINE
  5
114
330
1F
100
AcDbEntity
  8
callout
 62
   250
420
  2236191
370
    18
100
AcDb2dPolyline
 66
     1
 10
0.0
 20
0.0
 30
0.0
  0
VERTEX
  5
115
330
114
100
AcDbEntity
  8
callout
 62
   250
420
  2236191
370
    18
100
AcDbVertex
100
AcDb2dVertex
 10
212.5483870967746
 20
432.9806861877441
 30
0.0
  0
VERTEX
  5
116
330
114
100
AcDbEntity
  8
callout
 62
   250
420
  2236191
370
    18
100
AcDbVertex
100
AcDb2dVertex
 10
286.8926393013189
 20
396.6573766153961
 30
0.0
  0
SEQEND
  5
117
330
114
100
AcDbEntity
  8
callout
 62
   250
420
  2236191
370
    18
  0
ENDSEC
  0
SECTION
  2
OBJECTS
  0
DICTIONARY
  5
C
330
0
100
AcDbDictionary
281
     1
  3
ACAD_GROUP
350
D
  3
ACAD_LAYOUT
350
1A
  3
ACAD_MATERIAL
350
3B
  3
ACAD_MLEADERSTYLE
350
119
  3
ACAD_MLINESTYLE
350
17
  3
ACAD_PLOTSETTINGS
350
19
  3
ACAD_PLOTSTYLENAME
350
E
  3
ACAD_TABLESTYLE
350
118
  3
ACAD_VISUALSTYLE
350
2A
  0
SUN
  5
3F
330
29
100
AcDbSun
 90
        1
290
     0
 63
     7
421
 16777215
 40
1.0
291
     1
 91
  2455826
 92
 54000000
292
     0
 70
     2
 71
   256
280
     1
  0
DICTIONARY
  5
D
102
{ACAD_REACTORS
330
C
102
}
330
C
100
AcDbDictionary
281
     1
  0
DICTIONARY
  5
1A
102
{ACAD_REACTORS
330
C
102
}
330
C
100
AcDbDictionary
281
     1
  3
Layout1
350
1E
  3
Layout2
350
26
  3
Model
350
22
  0
DICTIONARY
  5
3B
102
{ACAD_REACTORS
330
C
102
}
330
C
100
AcDbDictionary
281
     1
  3
ByBlock
350
3D
  3
ByLayer
350
3C
  3
Global
350
3E
  0
DICTIONARY
  5
119
102
{ACAD_REACTORS
330
C
102
}
330
C
100
AcDbDictionary
281
     1
  0
DICTIONARY
  5
17
102
{ACAD_REACTORS
330
C
102
}
330
C
100
AcDbDictionary
281
     1
  3
Standard
350
18
  0
DICTIONARY
  5
19
102
{ACAD_REACTORS
330
C
102
}
330
C
100
AcDbDictionary
281
     1
  0
ACDBDICTIONARYWDFLT
  5
E
102
{ACAD_REACTORS
330
C
102
}
330
C
100
AcDbDictionary
281
     1
  3
Normal
350
F
100
AcDbDictionaryWithDefault
340
F
  0
DICTIONARY
  5
118
102
{ACAD_REACTORS
330
C
102
}
330
C
100
AcDbDictionary
281
     1
  0
DICTIONARY
  5
2A
102
{ACAD_REACTORS
330
C
102
}
330
C
100
AcDbDictionary
281
     1
  3
2dWireframe
350
2F
  3
3D Hidden
350
31
  3
3dWireframe
350
30
  3
Basic
350
32
  3
Brighten
350
36
  3
ColorChange
350
3A
  3
Conceptual
350
34
  3
Dim
350
35
  3
Facepattern
350
39
  3
Flat
350
2B
  3
FlatWithEdges
350
2C
  3
Gouraud
350
2D
  3
GouraudWithEdges
350
2E
  3
Linepattern
350
38
  3
Realistic
350
33
  3
Thicken
350
37
  0
LAYOUT
  5
1E
102
{ACAD_REACTORS
330
1A
102
}
330
1A
100
AcDbPlotSettings
  1

  2
none_device
  4

  6

 40
0.0
 41
0.0
 42
0.0
 43
0.0
 44
0.0
 45
0.0
 46
0.0
 47
0.0
 48
0.0
 49
0.0
140
0.0
141
0.0
142
1.0
143
1.0
 70
   688
 72
     0
 73
     0
 74
     5
  7

 75
    16
 76
     0
 77
     2
 78
   300
147
1.0
148
0.0
149
0.0
100
AcDbLayout
  1
Layout1
 70
     1
 71
     1
 10
0.0
 20
0.0
 11
12.0
 21
9.0
 12
0.0
 22
0.0
 32
0.0
 14
1.000000000000000E+20
 24
1.000000000000000E+20
 34
1.000000000000000E+20
 15
-1.000000000000000E+20
 25
-1.000000000000000E+20
 35
-1.000000000000000E+20
146
0.0
 13
0.0
 23
0.0
 33
0.0
 16
1.0
 26
0.0
 36
0.0
 17
0.0
 27
1.0
 37
0.0
 76
     0
330
1B
  0
LAYOUT
  5
26
102
{ACAD_REACTORS
330
1A
102
}
330
1A
100
AcDbPlotSettings
  1

  2
none_device
  4

  6

 40
0.0
 41
0.0
 42
0.0
 43
0.0
 44
0.0
 45
0.0
 46
0.0
 47
0.0
 48
0.0
 49
0.0
140
0.0
141
0.0
142
1.0
143
1.0
 70
   688
 72
     0
 73
     0
 74
     5
  7

 75
    16
 76
     0
 77
     2
 78
   300
147
1.0
148
0.0
149
0.0
100
AcDbLayout
  1
Layout2
 70
     1
 71
     2
 10
0.0
 20
0.0
 11
0.0
 21
0.0
 12
0.0
 22
0.0
 32
0.0
 14
0.0
 24
0.0
 34
0.0
 15
0.0
 25
0.0
 35
0.0
146
0.0
 13
0.0
 23
0.0
 33
0.0
 16
1.0
 26
0.0
 36
0.0
 17
0.0
 27
1.0
 37
0.0
 76
     0
330
23
  0
LAYOUT
  5
22
102
{ACAD_REACTORS
330
1A
102
}
330
1A
100
AcDbPlotSettings
  1

  2
none_device
  4

  6

 40
0.0
 41
0.0
 42
0.0
 43
0.0
 44
0.0
 45
0.0
 46
0.0
 47
0.0
 48
0.0
 49
0.0
140
0.0
141
0.0
142
1.0
143
1.0
 70
  1712
 72
     0
 73
     0
 74
     0
  7

 75
     0
 76
     0
 77
     2
 78
   300
147
1.0
148
0.0
149
0.0
100
AcDbLayout
  1
Model
 70
     1
 71
     0
 10
0.0
 20
0.0
 11
12.0
 21
9.0
 12
0.0
 22
0.0
 32
0.0
 14
1.000000000000000E+20
 24
1.000000000000000E+20
 34
1.000000000000000E+20
 15
-1.000000000000000E+20
 25
-1.000000000000000E+20
 35
-1.000000000000000E+20
146
0.0
 13
0.0
 23
0.0
 33
0.0
 16
1.0
 26
0.0
 36
0.0
 17
0.0
 27
1.0
 37
0.0
 76
     0
330
1F
331
29
  0
MATERIAL
  5
3D
102
{ACAD_REACTORS
330
3B
102
}
330
3B
100
AcDbMaterial
  1
ByBlock
 72
     1
 94
      127
  0
MATERIAL
  5
3C
102
{ACAD_REACTORS
330
3B
102
}
330
3B
100
AcDbMaterial
  1
ByLayer
 72
     1
 94
      127
  0
MATERIAL
  5
3E
102
{ACAD_REACTORS
330
3B
102
}
330
3B
100
AcDbMaterial
  1
Global
 72
     1
 94
      127
  0
MLINESTYLE
  5
18
102
{ACAD_REACTORS
330
17
102
}
330
17
100
AcDbMlineStyle
  2
Standard
 70
     0
  3

 62
   256
 51
90.0
 52
90.0
 71
     2
 49
0.5
 62
   256
  6
BYLAYER
 49
-0.5
 62
   256
  6
BYLAYER
  0
ACDBPLACEHOLDER
  5
F
102
{ACAD_REACTORS
330
E
102
}
330
E
  0
VISUALSTYLE
  5
2F
102
{ACAD_REACTORS
330
2A
102
}
330
2A
100
AcDbVisualStyle
  2
2dWireframe
 70
     4
177
     2
291
     0
 71
     0
176
     1
 72
     2
176
     1
 73
     0
176
     1
 90
        0
176
     1
 40
-0.6
176
     1
 41
-30.0
176
     1
 62
     5
 63
     7
421
 16777215
176
     1
 74
     1
176
     1
 91
        4
176
     1
 64
     7
176
     1
 65
   257
176
     1
 75
     1
176
     1
175
     1
176
     1
 42
1.0
176
     1
 92
        0
176
     1
 66
   257
176
     1
 43
1.0
176
     1
 76
     1
176
     1
 77
     6
176
     1
 78
     2
176
     1
 67
     7
176
     1
 79
     5
176
     1
170
     0
176
     1
171
     0
176
     1
290
     0
176
     1
 93
        1
176
     1
 44
0.0
176
     1
173
     0
176
     1
  0
VISUALSTYLE
  5
31
102
{ACAD_REACTORS
330
2A
102
}
330
2A
100
AcDbVisualStyle
  2
3D Hidden
 70
     6
177
     2
291
     0
 71
     1
176
     1
 72
     2
176
     1
 73
     2
176
     1
 90
        0
176
     1
 40
-0.6
176
     1
 41
-30.0
176
     1
 62
     5
 63
     7
421
 16777215
176
     1
 74
     2
176
     1
 91
        2
176
     1
 64
     7
176
     1
 65
   257
176
     1
 75
     2
176
     1
175
     1
176
     1
 42
40.0
176
     1
 92
        0
176
     1
 66
   257
176
     1
 43
1.0
176
     1
 76
     1
176
     1
 77
     6
176
     1
 78
     2
176
     1
 67
     7
176
     1
 79
     3
176
     1
170
     0
176
     1
171
     0
176
     1
290
     0
176
     1
 93
        1
176
     1
 44
0.0
176
     1
173
     0
176
     1
  0
VISUALSTYLE
  5
30
102
{ACAD_REACTORS
330
2A
102
}
330
2A
100
AcDbVisualStyle
  2
3dWireframe
 70
     5
177
     2
291
     0
 71
     0
176
     1
 72
     2
176
     1
 73
     0
176
     1
 90
        0
176
     1
 40
-0.6
176
     1
 41
-30.0
176
     1
 62
     5
 63
     7
421
 16777215
176
     1
 74
     1
176
     1
 91
        4
176
     1
 64
     7
176
     1
 65
   257
176
     1
 75
     1
176
     1
175
     1
176
     1
 42
1.0
176
     1
 92
        0
176
     1
 66
   257
176
     1
 43
1.0
176
     1
 76
     1
176
     1
 77
     6
176
     1
 78
     2
176
     1
 67
     7
176
     1
 79
     5
176
     1
170
     0
176
     1
171
     0
176
     1
290
     0
176
     1
 93
        1
176
     1
 44
0.0
176
     1
173
     0
176
     1
  0
VISUALSTYLE
  5
32
102
{ACAD_REACTORS
330
2A
102
}
330
2A
100
AcDbVisualStyle
  2
Basic
 70
     7
177
     2
291
     1
 71
     1
176
     1
 72
     0
176
     1
 73
     1
176
     1
 90
        0
176
     1
 40
-0.6
176
     1
 41
-30.0
176
     1
 62
     5
 63
     7
421
 16777215
176
     1
 74
     0
176
     1
 91
        4
176
     1
 64
     7
176
     1
 65
   257
176
     1
 75
     1
176
     1
175
     1
176
     1
 42
1.0
176
     1
 92
        8
176
     1
 66
     7
176
     1
 43
1.0
176
     1
 76
     1
176
     1
 77
     6
176
     1
 78
     2
176
     1
 67
     7
176
     1
 79
     5
176
     1
170
     0
176
     1
171
     0
176
     1
290
     0
176
     1
 93
        1
176
     1
 44
0.0
176
     1
173
     0
176
     1
  0
VISUALSTYLE
  5
36
102
{ACAD_REACTORS
330
2A
102
}
330
2A
100
AcDbVisualStyle
  2
Brighten
 70
    12
177
     2
291
     1
 71
     2
176
     1
 72
     2
176
     1
 73
     0
176
     1
 90
        0
176
     1
 40
-0.6
176
     1
 41
-30.0
176
     1
 62
     5
 63
     7
421
 16777215
176
     1
 74
     1
176
     1
 91
        4
176
     1
 64
     7
176
     1
 65
   257
176
     1
 75
     1
176
     1
175
     1
176
     1
 42
1.0
176
     1
 92
        8
176
     1
 66
     7
176
     1
 43
1.0
176
     1
 76
     1
176
     1
 77
     6
176
     1
 78
     2
176
     1
 67
     7
176
     1
 79
     5
176
     1
170
     0
176
     1
171
     0
176
     1
290
     0
176
     1
 93
        1
176
     1
 44
50.0
176
     1
173
     0
176
     1
  0
VISUALSTYLE
  5
3A
102
{ACAD_REACTORS
330
2A
102
}
330
2A
100
AcDbVisualStyle
  2
ColorChange
 70
    16
177
     2
291
     1
 71
     2
176
     1
 72
     2
176
     1
 73
     3
176
     1
 90
        0
176
     1
 40
-0.6
176
     1
 41
-30.0
176
     1
 62
     5
 63
     8
421
  8421504
176
     1
 74
     1
176
     1
 91
        4
176
     1
 64
     7
176
     1
 65
   257
176
     1
 75
     1
176
     1
175
     1
176
     1
 42
1.0
176
     1
 92
        8
176
     1
 66
     8
424
  8421504
176
     1
 43
1.0
176
     1
 76
     1
176
     1
 77
     6
176
     1
 78
     2
176
     1
 67
     7
176
     1
 79
     5
176
     1
170
     0
176
     1
171
     0
176
     1
290
     0
176
     1
 93
        1
176
     1
 44
0.0
176
     1
173
     0
176
     1
  0
VISUALSTYLE
  5
34
102
{ACAD_REACTORS
330
2A
102
}
330
2A
100
AcDbVisualStyle
  2
Conceptual
 70
     9
177
     2
291
     0
 71
     3
176
     1
 72
     2
176
     1
 73
     0
176
     1
 90
        0
176
     1
 40
-0.6
176
     1
 41
-30.0
176
     1
 62
     5
 63
     7
421
 16777215
176
     1
 74
     2
176
     1
 91
        2
176
     1
 64
     7
176
     1
 65
   257
176
     1
 75
     1
176
     1
175
     1
176
     1
 42
40.0
176
     1
 92
        8
176
     1
 66
     7
176
     1
 43
1.0
176
     1
 76
     1
176
     1
 77
     6
176
     1
 78
     2
176
     1
 67
     7
176
     1
 79
     3
176
     1
170
     0
176
     1
171
     0
176
     1
290
     0
176
     1
 93
        1
176
     1
 44
0.0
176
     1
173
     0
176
     1
  0
VISUALSTYLE
  5
35
102
{ACAD_REACTORS
330
2A
102
}
330
2A
100
AcDbVisualStyle
  2
Dim
 70
    11
177
     2
291
     1
 71
     2
176
     1
 72
     2
176
     1
 73
     0
176
     1
 90
        0
176
     1
 40
-0.6
176
     1
 41
-30.0
176
     1
 62
     5
 63
     7
421
 16777215
176
     1
 74
     1
176
     1
 91
        4
176
     1
 64
     7
176
     1
 65
   257
176
     1
 75
     1
176
     1
175
     1
176
     1
 42
1.0
176
     1
 92
        8
176
     1
 66
     7
176
     1
 43
1.0
176
     1
 76
     1
176
     1
 77
     6
176
     1
 78
     2
176
     1
 67
     7
176
     1
 79
     5
176
     1
170
     0
176
     1
171
     0
176
     1
290
     0
176
     1
 93
        1
176
     1
 44
-50.0
176
     1
173
     0
176
     1
  0
VISUALSTYLE
  5
39
102
{ACAD_REACTORS
330
2A
102
}
330
2A
100
AcDbVisualStyle
  2
Facepattern
 70
    15
177
     2
291
     1
 71
     2
176
     1
 72
     2
176
     1
 73
     0
176
     1
 90
        0
176
     1
 40
-0.6
176
     1
 41
-30.0
176
     1
 62
     5
 63
     7
421
 16777215
176
     1
 74
     1
176
     1
 91
        4
176
     1
 64
     7
176
     1
 65
   257
176
     1
 75
     1
176
     1
175
     1
176
     1
 42
1.0
176
     1
 92
        8
176
     1
 66
     7
176
     1
 43
1.0
176
     1
 76
     1
176
     1
 77
     6
176
     1
 78
     2
176
     1
 67
     7
176
     1
 79
     5
176
     1
170
     0
176
     1
171
     0
176
     1
290
     0
176
     1
 93
        1
176
     1
 44
0.0
176
     1
173
     0
176
     1
  0
VISUALSTYLE
  5
2B
102
{ACAD_REACTORS
330
2A
102
}
330
2A
100
AcDbVisualStyle
  2
Flat
 70
     0
177
     2
291
     1
 71
     2
176
     1
 72
     1
176
     1
 73
     1
176
     1
 90
        2
176
     1
 40
-0.6
176
     1
 41
30.0
176
     1
 62
     5
 63
     7
421
 16777215
176
     1
 74
     0
176
     1
 91
        4
176
     1
 64
     7
176
     1
 65
   257
176
     1
 75
     1
176
     1
175
     1
176
     1
 42
1.0
176
     1
 92
        8
176
     1
 66
     7
176
     1
 43
1.0
176
     1
 76
     1
176
     1
 77
     6
176
     1
 78
     2
176
     1
 67
     7
176
     1
 79
     5
176
     1
170
     0
176
     1
171
     0
176
     1
290
     0
176
     1
 93
       13
176
     1
 44
0.0
176
     1
173
     0
176
     1
  0
VISUALSTYLE
  5
2C
102
{ACAD_REACTORS
330
2A
102
}
330
2A
100
AcDbVisualStyle
  2
FlatWithEdges
 70
     1
177
     2
291
     1
 71
     2
176
     1
 72
     1
176
     1
 73
     1
176
     1
 90
        2
176
     1
 40
-0.6
176
     1
 41
30.0
176
     1
 62
     5
 63
     7
421
 16777215
176
     1
 74
     1
176
     1
 91
        4
176
     1
 64
     7
176
     1
 65
   257
176
     1
 75
     1
176
     1
175
     1
176
     1
 42
1.0
176
     1
 92
        0
176
     1
 66
   257
176
     1
 43
1.0
176
     1
 76
     1
176
     1
 77
     6
176
     1
 78
     2
176
     1
 67
     7
176
     1
 79
     5
176
     1
170
     0
176
     1
171
     0
176
     1
290
     0
176
     1
 93
       13
176
     1
 44
0.0
176
     1
173
     0
176
     1
  0
VISUALSTYLE
  5
2D
102
{ACAD_REACTORS
330
2A
102
}
330
2A
100
AcDbVisualStyle
  2
Gouraud
 70
     2
177
     2
291
     1
 71
     2
176
     1
 72
     2
176
     1
 73
     1
176
     1
 90
        2
176
     1
 40
-0.6
176
     1
 41
30.0
176
     1
 62
     5
 63
     7
421
 16777215
176
     1
 74
     0
176
     1
 91
        4
176
     1
 64
     7
176
     1
 65
   257
176
     1
 75
     1
176
     1
175
     1
176
     1
 42
1.0
176
     1
 92
        0
176
     1
 66
     7
176
     1
 43
1.0
176
     1
 76
     1
176
     1
 77
     6
176
     1
 78
     2
176
     1
 67
     7
176
     1
 79
     5
176
     1
170
     0
176
     1
171
     0
176
     1
290
     0
176
     1
 93
       13
176
     1
 44
0.0
176
     1
173
     0
176
     1
  0
VISUALSTYLE
  5
2E
102
{ACAD_REACTORS
330
2A
102
}
330
2A
100
AcDbVisualStyle
  2
GouraudWithEdges
 70
     3
177
     2
291
     1
 71
     2
176
     1
 72
     2
176
     1
 73
     1
176
     1
 90
        2
176
     1
 40
-0.6
176
     1
 41
30.0
176
     1
 62
     5
 63
     7
421
 16777215
176
     1
 74
     1
176
     1
 91
        4
176
     1
 64
     7
176
     1
 65
   257
176
     1
 75
     1
176
     1
175
     1
176
     1
 42
1.0
176
     1
 92
        0
176
     1
 66
   257
176
     1
 43
1.0
176
     1
 76
     1
176
     1
 77
     6
176
     1
 78
     2
176
     1
 67
     7
176
     1
 79
     5
176
     1
170
     0
176
     1
171
     0
176
     1
290
     0
176
     1
 93
       13
176
     1
 44
0.0
176
     1
173
     0
176
     1
  0
VISUALSTYLE
  5
38
102
{ACAD_REACTORS
330
2A
102
}
330
2A
100
AcDbVisualStyle
  2
Linepattern
 70
    14
177
     2
291
     1
 71
     2
176
     1
 72
     2
176
     1
 73
     0
176
     1
 90
        0
176
     1
 40
-0.6
176
     1
 41
-30.0
176
     1
 62
     5
 63
     7
421
 16777215
176
     1
 74
     1
176
     1
 91
        4
176
     1
 64
     7
176
     1
 65
   257
176
     1
 75
     7
176
     1
175
     7
176
     1
 42
1.0
176
     1
 92
        8
176
     1
 66
     7
176
     1
 43
1.0
176
     1
 76
     1
176
     1
 77
     6
176
     1
 78
     2
176
     1
 67
     7
176
     1
 79
     5
176
     1
170
     0
176
     1
171
     0
176
     1
290
     0
176
     1
 93
        1
176
     1
 44
0.0
176
     1
173
     0
176
     1
  0
VISUALSTYLE
  5
33
102
{ACAD_REACTORS
330
2A
102
}
330
2A
100
AcDbVisualStyle
  2
Realistic
 70
     8
177
     2
291
     0
 71
     2
176
     1
 72
     2
176
     1
 73
     0
176
     1
 90
        0
176
     1
 40
-0.6
176
     1
 41
-30.0
176
     1
 62
     5
 63
     7
421
 16777215
176
     1
 74
     1
176
     1
 91
        0
176
     1
 64
     7
176
     1
 65
   257
176
     1
 75
     1
176
     1
175
     1
176
     1
 42
1.0
176
     1
 92
        8
176
     1
 66
     8
424
  7895160
176
     1
 43
1.0
176
     1
 76
     1
176
     1
 77
     6
176
     1
 78
     2
176
     1
 67
     7
176
     1
 79
     5
176
     1
170
     0
176
     1
171
     0
176
     1
290
     0
176
     1
 93
       13
176
     1
 44
0.0
176
     1
173
     0
176
     1
  0
VISUALSTYLE
  5
37
102
{ACAD_REACTORS
330
2A
102
}
330
2A
100
AcDbVisualStyle
  2
Thicken
 70
    13
177
     2
291
     1
 71
     2
176
     1
 72
     2
176
     1
 73
     0
176
     1
 90
        0
176
     1
 40
-0.6
176
     1
 41
-30.0
176
     1
 62
     5
 63
     7
421
 16777215
176
     1
 74
     1
176
     1
 91
        4
176
     1
 64
     7
176
     1
 65
   257
176
     1
 75
     1
176
     1
175
     1
176
     1
 42
1.0
176
     1
 92
       12
176
     1
 66
     7
176
     1
 43
1.0
176
     1
 76
     1
176
     1
 77
     6
176
     1
 78
     2
176
     1
 67
     7
176
     1
 79
     5
176
     1
170
     0
176
     1
171
     0
176
     1
290
     0
176
     1
 93
        1
176
     1
 44
0.0
176
     1
173
     0
176
     1
  0
ENDSEC
  0
EOF
