  0
SECTION
  2
HEADER
  9
$ACADVER
  1
AC1024
  9
$ACADMAINTVER
 70
     6
  9
$DWGCODEPAGE
  3
ANSI_1252
  9
$INSBASE
 10
0.0
 20
0.0
 30
0.0
  9
$EXTMIN
 10
1.000000000000000E+20
 20
1.000000000000000E+20
 30
1.000000000000000E+20
  9
$EXTMAX
 10
-1.000000000000000E+20
 20
-1.000000000000000E+20
 30
-1.000000000000000E+20
  9
$LIMMIN
 10
0.0
 20
0.0
  9
$LIMMAX
 10
12.0
 20
9.0
  9
$ORTHOMODE
 70
     0
  9
$REGENMODE
 70
     1
  9
$FILLMODE
 70
     1
  9
$QTEXTMODE
 70
     0
  9
$MIRRTEXT
 70
     1
  9
$LTSCALE
 40
1.0
  9
$ATTMODE
 70
     1
  9
$TEXTSIZE
 40
0.2
  9
$TRACEWID
 40
0.05
  9
$TEXTSTYLE
  7
Standard
  9
$CLAYER
  8
0
  9
$CELTYPE
  6
ByLayer
  9
$CECOLOR
 62
   256
  9
$CELTSCALE
 40
1.0
  9
$DISPSILH
 70
     0
  9
$DIMSCALE
 40
1.0
  9
$DIMASZ
 40
0.18
  9
$DIMEXO
 40
0.0625
  9
$DIMDLI
 40
0.38
  9
$DIMRND
 40
0.0
  9
$DIMDLE
 40
0.0
  9
$DIMEXE
 40
0.18
  9
$DIMTP
 40
0.0
  9
$DIMTM
 40
0.0
  9
$DIMTXT
 40
0.18
  9
$DIMCEN
 40
0.09
  9
$DIMTSZ
 40
0.0
  9
$DIMTOL
 70
     0
  9
$DIMLIM
 70
     0
  9
$DIMTIH
 70
     1
  9
$DIMTOH
 70
     1
  9
$DIMSE1
 70
     0
  9
$DIMSE2
 70
     0
  9
$DIMTAD
 70
     0
  9
$DIMZIN
 70
     0
  9
$DIMBLK
  1

  9
$DIMASO
 70
     1
  9
$DIMSHO
 70
     1
  9
$DIMPOST
  1

  9
$DIMAPOST
  1

  9
$DIMALT
 70
     0
  9
$DIMALTD
 70
     2
  9
$DIMALTF
 40
25.4
  9
$DIMLFAC
 40
1.0
  9
$DIMTOFL
 70
     0
  9
$DIMTVP
 40
0.0
  9
$DIMTIX
 70
     0
  9
$DIMSOXD
 70
     0
  9
$DIMSAH
 70
     0
  9
$DIMBLK1
  1

  9
$DIMBLK2
  1

  9
$DIMSTYLE
  2
Standard
  9
$DIMCLRD
 70
     0
  9
$DIMCLRE
 70
     0
  9
$DIMCLRT
 70
     0
  9
$DIMTFAC
 40
1.0
  9
$DIMGAP
 40
0.09
  9
$DIMJUST
 70
     0
  9
$DIMSD1
 70
     0
  9
$DIMSD2
 70
     0
  9
$DIMTOLJ
 70
     1
  9
$DIMTZIN
 70
     0
  9
$DIMALTZ
 70
     0
  9
$DIMALTTZ
 70
     0
  9
$DIMUPT
 70
     0
  9
$DIMDEC
 70
     4
  9
$DIMTDEC
 70
     4
  9
$DIMALTU
 70
     2
  9
$DIMALTTD
 70
     2
  9
$DIMTXSTY
  7
Standard
  9
$DIMAUNIT
 70
     0
  9
$DIMADEC
 70
     0
  9
$DIMALTRND
 40
0.0
  9
$DIMAZIN
 70
     0
  9
$DIMDSEP
 70
    46
  9
$DIMATFIT
 70
     3
  9
$DIMFRAC
 70
     0
  9
$DIMLDRBLK
  1

  9
$DIMLUNIT
 70
     2
  9
$DIMLWD
 70
    -2
  9
$DIMLWE
 70
    -2
  9
$DIMTMOVE
 70
     0
  9
$DIMFXL
 40
1.0
  9
$DIMFXLON
 70
     0
  9
$DIMJOGANG
 40
0.7853981633974483
  9
$DIMTFILL
 70
     0
  9
$DIMTFILLCLR
 70
     0
  9
$DIMARCSYM
 70
     0
  9
$DIMLTYPE
  6

  9
$DIMLTEX1
  6

  9
$DIMLTEX2
  6

  9
$DIMTXTDIRECTION
 70
     0
  9
$LUNITS
 70
     2
  9
$LUPREC
 70
     4
  9
$SKETCHINC
 40
0.1
  9
$FILLETRAD
 40
0.5
  9
$AUNITS
 70
     0
  9
$AUPREC
 70
     0
  9
$MENU
  1
.
  9
$ELEVATION
 40
0.0
  9
$PELEVATION
 40
0.0
  9
$THICKNESS
 40
0.0
  9
$LIMCHECK
 70
     0
  9
$CHAMFERA
 40
0.5
  9
$CHAMFERB
 40
0.5
  9
$CHAMFERC
 40
1.0
  9
$CHAMFERD
 40
0.0
  9
$SKPOLY
 70
     0
  9
$TDCREATE
 40
2458767.382517222
  9
$TDUCREATE
 40
2458766.840850555
  9
$TDUPDATE
 40
2458767.382517407
  9
$TDUUPDATE
 40
2458766.840850741
  9
$TDINDWG
 40
0.0000000116
  9
$TDUSRTIMER
 40
0.0000000116
  9
$USRTIMER
 70
     1
  9
$ANGBASE
 50
0.0
  9
$ANGDIR
 70
     0
  9
$PDMODE
 70
     0
  9
$PDSIZE
 40
0.0
  9
$PLINEWID
 40
0.0
  9
$SPLFRAME
 70
     0
  9
$SPLINETYPE
 70
     6
  9
$SPLINESEGS
 70
     8
  9
$HANDSEED
  5
F5
  9
$SURFTAB1
 70
     6
  9
$SURFTAB2
 70
     6
  9
$SURFTYPE
 70
     6
  9
$SURFU
 70
     6
  9
$SURFV
 70
     6
  9
$UCSBASE
  2

  9
$UCSNAME
  2

  9
$UCSORG
 10
0.0
 20
0.0
 30
0.0
  9
$UCSXDIR
 10
1.0
 20
0.0
 30
0.0
  9
$UCSYDIR
 10
0.0
 20
1.0
 30
0.0
  9
$UCSORTHOREF
  2

  9
$UCSORTHOVIEW
 70
     0
  9
$UCSORGTOP
 10
0.0
 20
0.0
 30
0.0
  9
$UCSORGBOTTOM
 10
0.0
 20
0.0
 30
0.0
  9
$UCSORGLEFT
 10
0.0
 20
0.0
 30
0.0
  9
$UCSORGRIGHT
 10
0.0
 20
0.0
 30
0.0
  9
$UCSORGFRONT
 10
0.0
 20
0.0
 30
0.0
  9
$UCSORGBACK
 10
0.0
 20
0.0
 30
0.0
  9
$PUCSBASE
  2

  9
$PUCSNAME
  2

  9
$PUCSORG
 10
0.0
 20
0.0
 30
0.0
  9
$PUCSXDIR
 10
1.0
 20
0.0
 30
0.0
  9
$PUCSYDIR
 10
0.0
 20
1.0
 30
0.0
  9
$PUCSORTHOREF
  2

  9
$PUCSORTHOVIEW
 70
     0
  9
$PUCSORGTOP
 10
0.0
 20
0.0
 30
0.0
  9
$PUCSORGBOTTOM
 10
0.0
 20
0.0
 30
0.0
  9
$PUCSORGLEFT
 10
0.0
 20
0.0
 30
0.0
  9
$PUCSORGRIGHT
 10
0.0
 20
0.0
 30
0.0
  9
$PUCSORGFRONT
 10
0.0
 20
0.0
 30
0.0
  9
$PUCSORGBACK
 10
0.0
 20
0.0
 30
0.0
  9
$USERI1
 70
     0
  9
$USERI2
 70
     0
  9
$USERI3
 70
     0
  9
$USERI4
 70
     0
  9
$USERI5
 70
     0
  9
$USERR1
 40
0.0
  9
$USERR2
 40
0.0
  9
$USERR3
 40
0.0
  9
$USERR4
 40
0.0
  9
$USERR5
 40
0.0
  9
$WORLDVIEW
 70
     1
  9
$SHADEDGE
 70
     3
  9
$SHADEDIF
 70
    70
  9
$TILEMODE
 70
     1
  9
$MAXACTVP
 70
    64
  9
$PINSBASE
 10
0.0
 20
0.0
 30
0.0
  9
$PLIMCHECK
 70
     0
  9
$PEXTMIN
 10
1.000000000000000E+20
 20
1.000000000000000E+20
 30
1.000000000000000E+20
  9
$PEXTMAX
 10
-1.000000000000000E+20
 20
-1.000000000000000E+20
 30
-1.000000000000000E+20
  9
$PLIMMIN
 10
0.0
 20
0.0
  9
$PLIMMAX
 10
12.0
 20
9.0
  9
$UNITMODE
 70
     0
  9
$VISRETAIN
 70
     1
  9
$PLINEGEN
 70
     0
  9
$PSLTSCALE
 70
     1
  9
$TREEDEPTH
 70
  3020
  9
$CMLSTYLE
  2
Standard
  9
$CMLJUST
 70
     0
  9
$CMLSCALE
 40
1.0
  9
$PROXYGRAPHICS
 70
     1
  9
$MEASUREMENT
 70
     0
  9
$CELWEIGHT
370
    -1
  9
$ENDCAPS
280
     0
  9
$JOINSTYLE
280
     0
  9
$LWDISPLAY
290
     1
  9
$INSUNITS
 70
     4
  9
$HYPERLINKBASE
  1

  9
$STYLESHEET
  1

  9
$XEDIT
290
     1
  9
$CEPSNTYPE
380
     0
  9
$PSTYLEMODE
290
     1
  9
$FINGERPRINTGUID
  2
{9F2984EE-7E26-406D-8F94-DD675032BAAA}
  9
$VERSIONGUID
  2
{FAEB1C32-E019-11D5-929B-00C0DF256EC4}
  9
$EXTNAMES
290
     1
  9
$PSVPSCALE
 40
0.0
  9
$OLESTARTUP
290
     0
  9
$SORTENTS
280
   127
  9
$INDEXCTL
280
     0
  9
$HIDETEXT
280
     1
  9
$XCLIPFRAME
280
     2
  9
$HALOGAP
280
     0
  9
$OBSCOLOR
 70
   257
  9
$OBSLTYPE
280
     0
  9
$INTERSECTIONDISPLAY
280
     0
  9
$INTERSECTIONCOLOR
 70
   257
  9
$DIMASSOC
280
     2
  9
$PROJECTNAME
  1

  9
$CAMERADISPLAY
290
     0
  9
$LENSLENGTH
 40
50.0
  9
$CAMERAHEIGHT
 40
0.0
  9
$STEPSPERSEC
 40
2.0
  9
$STEPSIZE
 40
6.0
  9
$3DDWFPREC
 40
2.0
  9
$PSOLWIDTH
 40
0.25
  9
$PSOLHEIGHT
 40
4.0
  9
$LOFTANG1
 40
1.570796326794897
  9
$LOFTANG2
 40
1.570796326794897
  9
$LOFTMAG1
 40
0.0
  9
$LOFTMAG2
 40
0.0
  9
$LOFTPARAM
 70
     7
  9
$LOFTNORMALS
280
     1
  9
$LATITUDE
 40
37.795
  9
$LONGITUDE
 40
-122.394
  9
$NORTHDIRECTION
 40
0.0
  9
$TIMEZONE
 70
 -8000
  9
$LIGHTGLYPHDISPLAY
280
     1
  9
$TILEMODELIGHTSYNCH
280
     1
  9
$CMATERIAL
347
3C
  9
$SOLIDHIST
280
     1
  9
$SHOWHIST
280
     1
  9
$DWFFRAME
280
     2
  9
$DGNFRAME
280
     2
  9
$REALWORLDSCALE
290
     1
  9
$INTERFERECOLOR
 62
   256
  9
$CSHADOW
280
     0
  9
$SHADOWPLANELOCATION
 40
0.0
  0
ENDSEC
  0
SECTION
  2
CLASSES
  0
CLASS
  1
ACDBDICTIONARYWDFLT
  2
AcDbDictionaryWithDefault
  3
ObjectDBX Classes
 90
        0
 91
        4
280
     0
281
     0
  0
CLASS
  1
VISUALSTYLE
  2
AcDbVisualStyle
  3
ObjectDBX Classes
 90
     4095
 91
        4
280
     0
281
     0
  0
CLASS
  1
MATERIAL
  2
AcDbMaterial
  3
ObjectDBX Classes
 90
     1153
 91
        4
280
     0
281
     0
  0
CLASS
  1
SUN
  2
AcDbSun
  3
SCENEOE
 90
     1024
 91
        4
280
     0
281
     0
  0
ENDSEC
  0
SECTION
  2
TABLES
  0
TABLE
  2
VPORT
  5
8
330
0
100
AcDbSymbolTable
 70
     1
  0
VPORT
  5
29
330
8
100
AcDbSymbolTableRecord
100
AcDbViewportTableRecord
  2
*Active
 70
     0
 10
0.0
 20
0.0
 11
1.0
 21
1.0
 12
0.0
 22
0.0
 13
0.0
 23
0.0
 14
0.5
 24
0.5
 15
0.5
 25
0.5
 16
0.0
 26
0.0
 36
1.0
 17
105.0008280156501
 27
148.5000555170035
 37
0.0
 40
297.000111034007
 41
0.7070760185919753
 42
50.0
 43
0.0
 44
0.0
 50
0.0
 51
0.0
 71
     0
 72
   100
 73
     1
 74
     3
 75
     0
 76
     0
 77
     0
 78
     0
281
     0
 65
     1
110
0.0
120
0.0
130
0.0
111
1.0
121
0.0
131
0.0
112
0.0
122
1.0
132
0.0
 79
     0
146
0.0
 60
     3
 61
     5
292
     1
282
     1
141
0.0
142
0.0
 63
   250
361
3F
  0
ENDTAB
  0
TABLE
  2
LTYPE
  5
5
330
0
100
AcDbSymbolTable
 70
     1
  0
LTYPE
  5
14
330
5
100
AcDbSymbolTableRecord
100
AcDbLinetypeTableRecord
  2
ByBlock
 70
     0
  3

 72
    65
 73
     0
 40
0.0
  0
LTYPE
  5
15
330
5
100
AcDbSymbolTableRecord
100
AcDbLinetypeTableRecord
  2
ByLayer
 70
     0
  3

 72
    65
 73
     0
 40
0.0
  0
LTYPE
  5
16
330
5
100
AcDbSymbolTableRecord
100
AcDbLinetypeTableRecord
  2
Continuous
 70
     0
  3
Solid line
 72
    65
 73
     0
 40
0.0
  0
ENDTAB
  0
TABLE
  2
LAYER
  5
2
330
0
100
AcDbSymbolTable
 70
     3
  0
LAYER
  5
10
330
2
100
AcDbSymbolTableRecord
100
AcDbLayerTableRecord
  2
0
 70
     0
 62
     7
  6
Continuous
370
    -3
390
F
347
3E
  0
LAYER
  5
40
330
2
100
AcDbSymbolTableRecord
100
AcDbLayerTableRecord
  2
_U+56FE_U+5C42 1
 70
     0
 62
     7
  6
Continuous
370
    -3
390
F
347
3E
  0
LAYER
  5
D3
330
2
100
AcDbSymbolTableRecord
100
AcDbLayerTableRecord
  2
callouit
 70
     0
 62
     7
  6
Continuous
370
    -3
390
F
347
3E
  0
ENDTAB
  0
TABLE
  2
STYLE
  5
3
330
0
100
AcDbSymbolTable
 70
     1
  0
STYLE
  5
11
330
3
100
AcDbSymbolTableRecord
100
AcDbTextStyleTableRecord
  2
Standard
 70
     0
 40
0.0
 41
1.0
 50
0.0
 71
     0
 42
0.2
  3
txt
  4

  0
ENDTAB
  0
TABLE
  2
VIEW
  5
6
330
0
100
AcDbSymbolTable
 70
     0
  0
ENDTAB
  0
TABLE
  2
UCS
  5
7
330
0
100
AcDbSymbolTable
 70
     0
  0
ENDTAB
  0
TABLE
  2
APPID
  5
9
330
0
100
AcDbSymbolTable
 70
     1
  0
APPID
  5
12
330
9
100
AcDbSymbolTableRecord
100
AcDbRegAppTableRecord
  2
ACAD
 70
     0
  0
ENDTAB
  0
TABLE
  2
DIMSTYLE
  5
A
330
0
100
AcDbSymbolTable
 70
     1
100
AcDbDimStyleTable
  0
DIMSTYLE
105
27
330
A
100
AcDbSymbolTableRecord
100
AcDbDimStyleTableRecord
  2
Standard
 70
     0
178
     0
340
11
  0
ENDTAB
  0
TABLE
  2
BLOCK_RECORD
  5
1
330
0
100
AcDbSymbolTable
 70
     8
  0
BLOCK_RECORD
  5
1F
330
1
100
AcDbSymbolTableRecord
100
AcDbBlockTableRecord
  2
*Model_Space
340
22
 70
     0
280
     1
281
     0
  0
BLOCK_RECORD
  5
1B
330
1
100
AcDbSymbolTableRecord
100
AcDbBlockTableRecord
  2
*Paper_Space
340
1E
 70
     0
280
     1
281
     0
  0
BLOCK_RECORD
  5
23
330
1
100
AcDbSymbolTableRecord
100
AcDbBlockTableRecord
  2
*Paper_Space0
340
26
 70
     0
280
     1
281
     0
  0
BLOCK_RECORD
  5
87
330
1
100
AcDbSymbolTableRecord
100
AcDbBlockTableRecord
  2
block 2
340
0
102
{BLKREFS
331
88
102
}
 70
     0
280
     1
281
     0
  0
BLOCK_RECORD
  5
8B
330
1
100
AcDbSymbolTableRecord
100
AcDbBlockTableRecord
  2
block 3
340
0
102
{BLKREFS
331
8C
102
}
 70
     0
280
     1
281
     0
  0
BLOCK_RECORD
  5
91
330
1
100
AcDbSymbolTableRecord
100
AcDbBlockTableRecord
  2
block 4
340
0
102
{BLKREFS
331
92
102
}
 70
     0
280
     1
281
     0
  0
BLOCK_RECORD
  5
B7
330
1
100
AcDbSymbolTableRecord
100
AcDbBlockTableRecord
  2
block 5
340
0
102
{BLKREFS
331
B8
102
}
 70
     0
280
     1
281
     0
  0
BLOCK_RECORD
  5
BB
330
1
100
AcDbSymbolTableRecord
100
AcDbBlockTableRecord
  2
block 6
340
0
102
{BLKREFS
331
BC
102
}
 70
     0
280
     1
281
     0
  0
BLOCK_RECORD
  5
D7
330
1
100
AcDbSymbolTableRecord
100
AcDbBlockTableRecord
  2
block 7
340
0
102
{BLKREFS
331
D8
102
}
 70
     0
280
     1
281
     0
  0
BLOCK_RECORD
  5
E4
330
1
100
AcDbSymbolTableRecord
100
AcDbBlockTableRecord
  2
block 8
340
0
102
{BLKREFS
331
E5
102
}
 70
     0
280
     1
281
     0
  0
ENDTAB
  0
ENDSEC
  0
SECTION
  2
BLOCKS
  0
BLOCK
  5
20
330
1F
100
AcDbEntity
  8
0
100
AcDbBlockBegin
  2
*Model_Space
 70
     0
 10
0.0
 20
0.0
 30
0.0
  3
*Model_Space
  1

  0
ENDBLK
  5
21
330
1F
100
AcDbEntity
  8
0
100
AcDbBlockEnd
  0
BLOCK
  5
1C
330
1B
100
AcDbEntity
 67
     1
  8
0
100
AcDbBlockBegin
  2
*Paper_Space
 70
     0
 10
0.0
 20
0.0
 30
0.0
  3
*Paper_Space
  1

  0
ENDBLK
  5
1D
330
1B
100
AcDbEntity
 67
     1
  8
0
100
AcDbBlockEnd
  0
BLOCK
  5
24
330
23
100
AcDbEntity
  8
0
100
AcDbBlockBegin
  2
*Paper_Space0
 70
     0
 10
0.0
 20
0.0
 30
0.0
  3
*Paper_Space0
  1

  0
ENDBLK
  5
25
330
23
100
AcDbEntity
  8
0
100
AcDbBlockEnd
  0
BLOCK
  5
89
330
87
100
AcDbEntity
  8
0
100
AcDbBlockBegin
  2
block 2
 70
     0
 10
0.0
 20
0.0
 30
0.0
  3
block 2
  1

  0
INSERT
  5
8C
330
87
100
AcDbEntity
  8
_U+56FE_U+5C42 1
100
AcDbBlockReference
  2
block 3
 10
0.0
 20
0.0
 30
0.0
  0
INSERT
  5
92
330
87
100
AcDbEntity
  8
_U+56FE_U+5C42 1
100
AcDbBlockReference
  2
block 4
 10
0.0
 20
0.0
 30
0.0
  0
ENDBLK
  5
8A
330
87
100
AcDbEntity
  8
0
100
AcDbBlockEnd
  0
BLOCK
  5
8D
330
8B
100
AcDbEntity
  8
0
100
AcDbBlockBegin
  2
block 3
 70
     0
 10
0.0
 20
0.0
 30
0.0
  3
block 3
  1

  0
SPLINE
  5
8F
330
8B
100
AcDbEntity
  8
_U+56FE_U+5C42 1
370
     0
100
AcDbSpline
210
0.0
220
0.0
230
1.0
 70
    11
 71
     3
 72
   407
 73
   403
 74
     0
 42
0.0000000001
 43
0.0000000001
 12
1.0
 22
0.0
 32
0.0
 13
1.0
 23
0.0
 33
0.0
 40
0.0
 40
0.0
 40
0.0
 40
0.0
 40
1.0
 40
1.0
 40
1.0
 40
2.0
 40
2.0
 40
2.0
 40
3.0
 40
3.0
 40
3.0
 40
4.0
 40
4.0
 40
4.0
 40
5.0
 40
5.0
 40
5.0
 40
6.0
 40
6.0
 40
6.0
 40
7.0
 40
7.0
 40
7.0
 40
8.0
 40
8.0
 40
8.0
 40
9.0
 40
9.0
 40
9.0
 40
10.0
 40
10.0
 40
10.0
 40
11.0
 40
11.0
 40
11.0
 40
12.0
 40
12.0
 40
12.0
 40
13.0
 40
13.0
 40
13.0
 40
14.0
 40
14.0
 40
14.0
 40
15.0
 40
15.0
 40
15.0
 40
16.0
 40
16.0
 40
16.0
 40
17.0
 40
17.0
 40
17.0
 40
18.0
 40
18.0
 40
18.0
 40
19.0
 40
19.0
 40
19.0
 40
20.0
 40
20.0
 40
20.0
 40
21.0
 40
21.0
 40
21.0
 40
22.0
 40
22.0
 40
22.0
 40
23.0
 40
23.0
 40
23.0
 40
24.0
 40
24.0
 40
24.0
 40
25.0
 40
25.0
 40
25.0
 40
26.0
 40
26.0
 40
26.0
 40
27.0
 40
27.0
 40
27.0
 40
28.0
 40
28.0
 40
28.0
 40
29.0
 40
29.0
 40
29.0
 40
30.0
 40
30.0
 40
30.0
 40
31.0
 40
31.0
 40
31.0
 40
32.0
 40
32.0
 40
32.0
 40
33.0
 40
33.0
 40
33.0
 40
34.0
 40
34.0
 40
34.0
 40
35.0
 40
35.0
 40
35.0
 40
36.0
 40
36.0
 40
36.0
 40
37.0
 40
37.0
 40
37.0
 40
38.0
 40
38.0
 40
38.0
 40
39.0
 40
39.0
 40
39.0
 40
40.0
 40
40.0
 40
40.0
 40
41.0
 40
41.0
 40
41.0
 40
42.0
 40
42.0
 40
42.0
 40
43.0
 40
43.0
 40
43.0
 40
44.0
 40
44.0
 40
44.0
 40
45.0
 40
45.0
 40
45.0
 40
46.0
 40
46.0
 40
46.0
 40
47.0
 40
47.0
 40
47.0
 40
48.0
 40
48.0
 40
48.0
 40
49.0
 40
49.0
 40
49.0
 40
50.0
 40
50.0
 40
50.0
 40
51.0
 40
51.0
 40
51.0
 40
52.0
 40
52.0
 40
52.0
 40
53.0
 40
53.0
 40
53.0
 40
54.0
 40
54.0
 40
54.0
 40
55.0
 40
55.0
 40
55.0
 40
56.0
 40
56.0
 40
56.0
 40
57.0
 40
57.0
 40
57.0
 40
58.0
 40
58.0
 40
58.0
 40
59.0
 40
59.0
 40
59.0
 40
60.0
 40
60.0
 40
60.0
 40
61.0
 40
61.0
 40
61.0
 40
62.0
 40
62.0
 40
62.0
 40
63.0
 40
63.0
 40
63.0
 40
64.0
 40
64.0
 40
64.0
 40
65.0
 40
65.0
 40
65.0
 40
66.0
 40
66.0
 40
66.0
 40
67.0
 40
67.0
 40
67.0
 40
68.0
 40
68.0
 40
68.0
 40
69.0
 40
69.0
 40
69.0
 40
70.0
 40
70.0
 40
70.0
 40
71.0
 40
71.0
 40
71.0
 40
72.0
 40
72.0
 40
72.0
 40
73.0
 40
73.0
 40
73.0
 40
74.0
 40
74.0
 40
74.0
 40
75.0
 40
75.0
 40
75.0
 40
76.0
 40
76.0
 40
76.0
 40
77.0
 40
77.0
 40
77.0
 40
78.0
 40
78.0
 40
78.0
 40
79.0
 40
79.0
 40
79.0
 40
80.0
 40
80.0
 40
80.0
 40
81.0
 40
81.0
 40
81.0
 40
82.0
 40
82.0
 40
82.0
 40
83.0
 40
83.0
 40
83.0
 40
84.0
 40
84.0
 40
84.0
 40
85.0
 40
85.0
 40
85.0
 40
86.0
 40
86.0
 40
86.0
 40
87.0
 40
87.0
 40
87.0
 40
88.0
 40
88.0
 40
88.0
 40
89.0
 40
89.0
 40
89.0
 40
90.0
 40
90.0
 40
90.0
 40
91.0
 40
91.0
 40
91.0
 40
92.0
 40
92.0
 40
92.0
 40
93.0
 40
93.0
 40
93.0
 40
94.0
 40
94.0
 40
94.0
 40
95.0
 40
95.0
 40
95.0
 40
96.0
 40
96.0
 40
96.0
 40
97.0
 40
97.0
 40
97.0
 40
98.0
 40
98.0
 40
98.0
 40
99.0
 40
99.0
 40
99.0
 40
100.0
 40
100.0
 40
100.0
 40
101.0
 40
101.0
 40
101.0
 40
102.0
 40
102.0
 40
102.0
 40
103.0
 40
103.0
 40
103.0
 40
104.0
 40
104.0
 40
104.0
 40
105.0
 40
105.0
 40
105.0
 40
106.0
 40
106.0
 40
106.0
 40
107.0
 40
107.0
 40
107.0
 40
108.0
 40
108.0
 40
108.0
 40
109.0
 40
109.0
 40
109.0
 40
110.0
 40
110.0
 40
110.0
 40
111.0
 40
111.0
 40
111.0
 40
112.0
 40
112.0
 40
112.0
 40
113.0
 40
113.0
 40
113.0
 40
114.0
 40
114.0
 40
114.0
 40
115.0
 40
115.0
 40
115.0
 40
116.0
 40
116.0
 40
116.0
 40
117.0
 40
117.0
 40
117.0
 40
118.0
 40
118.0
 40
118.0
 40
119.0
 40
119.0
 40
119.0
 40
120.0
 40
120.0
 40
120.0
 40
121.0
 40
121.0
 40
121.0
 40
122.0
 40
122.0
 40
122.0
 40
123.0
 40
123.0
 40
123.0
 40
124.0
 40
124.0
 40
124.0
 40
125.0
 40
125.0
 40
125.0
 40
126.0
 40
126.0
 40
126.0
 40
127.0
 40
127.0
 40
127.0
 40
128.0
 40
128.0
 40
128.0
 40
129.0
 40
129.0
 40
129.0
 40
130.0
 40
130.0
 40
130.0
 40
131.0
 40
131.0
 40
131.0
 40
132.0
 40
132.0
 40
132.0
 40
133.0
 40
133.0
 40
133.0
 40
134.0
 40
134.0
 40
134.0
 40
134.0
 10
101.048557864899
 20
193.6269882868114
 30
0.0
 10
101.048557864899
 20
193.6269882868114
 30
0.0
 10
100.7109014629329
 20
193.3646748527664
 30
0.0
 10
100.7109014629329
 20
193.3646748527664
 30
0.0
 10
100.7109014629329
 20
193.3646748527664
 30
0.0
 10
101.0803476721629
 20
193.1553231130075
 30
0.0
 10
101.0803476721629
 20
193.1553231130075
 30
0.0
 10
101.0803476721629
 20
193.1553231130075
 30
0.0
 10
100.745945703108
 20
192.8967910929842
 30
0.0
 10
100.745945703108
 20
192.8967910929842
 30
0.0
 10
100.745945703108
 20
192.8967910929842
 30
0.0
 10
101.1153919123379
 20
192.6874393532253
 30
0.0
 10
101.1153919123379
 20
192.6874393532253
 30
0.0
 10
101.1153919123379
 20
192.6874393532253
 30
0.0
 10
100.7812534338103
 20
192.4253894101965
 30
0.0
 10
100.7812534338103
 20
192.4253894101965
 30
0.0
 10
100.7812534338103
 20
192.4253894101965
 30
0.0
 10
101.1506996430402
 20
192.2160376704376
 30
0.0
 10
101.1506996430402
 20
192.2160376704376
 30
0.0
 10
101.1506996430402
 20
192.2160376704376
 30
0.0
 10
100.8162976739854
 20
191.9575056504147
 30
0.0
 10
100.8162976739854
 20
191.9575056504147
 30
0.0
 10
100.8162976739854
 20
191.9575056504147
 30
0.0
 10
101.1857438832153
 20
191.7481539106551
 30
0.0
 10
101.1857438832153
 20
191.7481539106551
 30
0.0
 10
101.1857438832153
 20
191.7481539106551
 30
0.0
 10
100.8480874812486
 20
191.4858404766108
 30
0.0
 10
100.8480874812486
 20
191.4858404766108
 30
0.0
 10
100.8480874812486
 20
191.4858404766108
 30
0.0
 10
101.2175336904786
 20
191.2764887368512
 30
0.0
 10
101.2175336904786
 20
191.2764887368512
 30
0.0
 10
101.2175336904786
 20
191.2764887368512
 30
0.0
 10
100.8833952119516
 20
191.014438793823
 30
0.0
 10
100.8833952119516
 20
191.014438793823
 30
0.0
 10
100.8833952119516
 20
191.014438793823
 30
0.0
 10
101.2525779306536
 20
190.8086049770693
 30
0.0
 10
101.2525779306536
 20
190.8086049770693
 30
0.0
 10
101.2525779306536
 20
190.8086049770693
 30
0.0
 10
100.918439452126
 20
190.5465550340402
 30
0.0
 10
100.918439452126
 20
190.5465550340402
 30
0.0
 10
100.918439452126
 20
190.5465550340402
 30
0.0
 10
101.287885661356
 20
190.3372032942813
 30
0.0
 10
101.287885661356
 20
190.3372032942813
 30
0.0
 10
101.287885661356
 20
190.3372032942813
 30
0.0
 10
100.953747182829
 20
190.0751533512525
 30
0.0
 10
100.953747182829
 20
190.0751533512525
 30
0.0
 10
100.953747182829
 20
190.0751533512525
 30
0.0
 10
101.3231933920589
 20
189.8658016114936
 30
0.0
 10
101.3231933920589
 20
189.8658016114936
 30
0.0
 10
101.3231933920589
 20
189.8658016114936
 30
0.0
 10
100.9887914230034
 20
189.6072695914707
 30
0.0
 10
100.9887914230034
 20
189.6072695914707
 30
0.0
 10
100.9887914230034
 20
189.6072695914707
 30
0.0
 10
101.3582376322333
 20
189.3979178517118
 30
0.0
 10
101.3582376322333
 20
189.3979178517118
 30
0.0
 10
101.3582376322333
 20
189.3979178517118
 30
0.0
 10
101.0205812302676
 20
189.1356044176664
 30
0.0
 10
101.0205812302676
 20
189.1356044176664
 30
0.0
 10
101.0205812302676
 20
189.1356044176664
 30
0.0
 10
101.3900274394972
 20
188.9262526779075
 30
0.0
 10
101.3900274394972
 20
188.9262526779075
 30
0.0
 10
101.3900274394972
 20
188.9262526779075
 30
0.0
 10
101.0556254704424
 20
188.6677206578846
 30
0.0
 10
101.0556254704424
 20
188.6677206578846
 30
0.0
 10
101.0556254704424
 20
188.6677206578846
 30
0.0
 10
101.4250716796723
 20
188.4583689181253
 30
0.0
 10
101.4250716796723
 20
188.4583689181253
 30
0.0
 10
101.4250716796723
 20
188.4583689181253
 30
0.0
 10
101.0909332011447
 20
188.1963189750969
 30
0.0
 10
101.0909332011447
 20
188.1963189750969
 30
0.0
 10
101.0909332011447
 20
188.1963189750969
 30
0.0
 10
101.4603794103746
 20
187.9869672353383
 30
0.0
 10
101.4603794103746
 20
187.9869672353383
 30
0.0
 10
101.4603794103746
 20
187.9869672353383
 30
0.0
 10
101.126240931847
 20
187.7249172923088
 30
0.0
 10
101.126240931847
 20
187.7249172923088
 30
0.0
 10
101.126240931847
 20
187.7249172923088
 30
0.0
 10
101.4954236505497
 20
187.5190834755558
 30
0.0
 10
101.4954236505497
 20
187.5190834755558
 30
0.0
 10
101.4954236505497
 20
187.5190834755558
 30
0.0
 10
101.1612851720221
 20
187.2570335325267
 30
0.0
 10
101.1612851720221
 20
187.2570335325267
 30
0.0
 10
101.1612851720221
 20
187.2570335325267
 30
0.0
 10
101.530731381252
 20
187.0476817927681
 30
0.0
 10
101.530731381252
 20
187.0476817927681
 30
0.0
 10
101.530731381252
 20
187.0476817927681
 30
0.0
 10
101.193074979286
 20
186.7853683587231
 30
0.0
 10
101.193074979286
 20
186.7853683587231
 30
0.0
 10
101.193074979286
 20
186.7853683587231
 30
0.0
 10
101.5625211885159
 20
186.5760166189635
 30
0.0
 10
101.5625211885159
 20
186.5760166189635
 30
0.0
 10
101.5625211885159
 20
186.5760166189635
 30
0.0
 10
101.2281192194604
 20
186.3174845989409
 30
0.0
 10
101.2281192194604
 20
186.3174845989409
 30
0.0
 10
101.2281192194604
 20
186.3174845989409
 30
0.0
 10
101.5975654286903
 20
186.1081328591816
 30
0.0
 10
101.5975654286903
 20
186.1081328591816
 30
0.0
 10
101.5975654286903
 20
186.1081328591816
 30
0.0
 10
101.2634269501633
 20
185.8460829161532
 30
0.0
 10
101.2634269501633
 20
185.8460829161532
 30
0.0
 10
101.2634269501633
 20
185.8460829161532
 30
0.0
 10
101.6328731593933
 20
185.6367311763939
 30
0.0
 10
101.6328731593933
 20
185.6367311763939
 30
0.0
 10
101.6328731593933
 20
185.6367311763939
 30
0.0
 10
101.2984711903378
 20
185.3781991563714
 30
0.0
 10
101.2984711903378
 20
185.3781991563714
 30
0.0
 10
101.2984711903378
 20
185.3781991563714
 30
0.0
 10
101.6679173995677
 20
185.1688474166118
 30
0.0
 10
101.6679173995677
 20
185.1688474166118
 30
0.0
 10
101.6679173995677
 20
185.1688474166118
 30
0.0
 10
101.3337789210407
 20
184.9067974735833
 30
0.0
 10
101.3337789210407
 20
184.9067974735833
 30
0.0
 10
101.3337789210407
 20
184.9067974735833
 30
0.0
 10
101.7032251302707
 20
184.6974457338241
 30
0.0
 10
101.7032251302707
 20
184.6974457338241
 30
0.0
 10
101.7032251302707
 20
184.6974457338241
 30
0.0
 10
101.365568728304
 20
184.4351322997791
 30
0.0
 10
101.365568728304
 20
184.4351322997791
 30
0.0
 10
101.365568728304
 20
184.4351322997791
 30
0.0
 10
101.7347514470061
 20
184.229298483026
 30
0.0
 10
101.7347514470061
 20
184.229298483026
 30
0.0
 10
101.7347514470061
 20
184.229298483026
 30
0.0
 10
101.4006129684791
 20
183.9672485399969
 30
0.0
 10
101.4006129684791
 20
183.9672485399969
 30
0.0
 10
101.4006129684791
 20
183.9672485399969
 30
0.0
 10
101.770059177709
 20
183.757896800238
 30
0.0
 10
101.770059177709
 20
183.757896800238
 30
0.0
 10
101.770059177709
 20
183.757896800238
 30
0.0
 10
101.4359206991814
 20
183.4958468572092
 30
0.0
 10
101.4359206991814
 20
183.4958468572092
 30
0.0
 10
101.4359206991814
 20
183.4958468572092
 30
0.0
 10
101.8051034178838
 20
183.2900130404561
 30
0.0
 10
101.8051034178838
 20
183.2900130404561
 30
0.0
 10
101.8051034178838
 20
183.2900130404561
 30
0.0
 10
101.4709649393564
 20
183.0279630974274
 30
0.0
 10
101.4709649393564
 20
183.0279630974274
 30
0.0
 10
101.4709649393564
 20
183.0279630974274
 30
0.0
 10
101.8404111485858
 20
182.8186113576684
 30
0.0
 10
101.8404111485858
 20
182.8186113576684
 30
0.0
 10
101.8404111485858
 20
182.8186113576684
 30
0.0
 10
101.5062726700588
 20
182.5565614146393
 30
0.0
 10
101.5062726700588
 20
182.5565614146393
 30
0.0
 10
101.5062726700588
 20
182.5565614146393
 30
0.0
 10
101.8757188792887
 20
182.3472096748804
 30
0.0
 10
101.8757188792887
 20
182.3472096748804
 30
0.0
 10
101.8757188792887
 20
182.3472096748804
 30
0.0
 10
101.5377989867948
 20
182.0884141638413
 30
0.0
 10
101.5377989867948
 20
182.0884141638413
 30
0.0
 10
101.5377989867948
 20
182.0884141638413
 30
0.0
 10
101.9072451960247
 20
181.879062424082
 30
0.0
 10
101.9072451960247
 20
181.879062424082
 30
0.0
 10
101.9072451960247
 20
181.879062424082
 30
0.0
 10
101.5731067174977
 20
181.6170124810536
 30
0.0
 10
101.5731067174977
 20
181.6170124810536
 30
0.0
 10
101.5731067174977
 20
181.6170124810536
 30
0.0
 10
101.942552926727
 20
181.4076607412943
 30
0.0
 10
101.942552926727
 20
181.4076607412943
 30
0.0
 10
101.942552926727
 20
181.4076607412943
 30
0.0
 10
101.6084144482001
 20
181.1456107982658
 30
0.0
 10
101.6084144482001
 20
181.1456107982658
 30
0.0
 10
101.6084144482001
 20
181.1456107982658
 30
0.0
 10
101.9775971669021
 20
180.9397769815121
 30
0.0
 10
101.9775971669021
 20
180.9397769815121
 30
0.0
 10
101.9775971669021
 20
180.9397769815121
 30
0.0
 10
101.6434586883745
 20
180.6777270384837
 30
0.0
 10
101.6434586883745
 20
180.6777270384837
 30
0.0
 10
101.6434586883745
 20
180.6777270384837
 30
0.0
 10
102.0129048976044
 20
180.4683752987244
 30
0.0
 10
102.0129048976044
 20
180.4683752987244
 30
0.0
 10
102.0129048976044
 20
180.4683752987244
 30
0.0
 10
101.6787664190774
 20
180.206325355696
 30
0.0
 10
101.6787664190774
 20
180.206325355696
 30
0.0
 10
101.6787664190774
 20
180.206325355696
 30
0.0
 10
102.0444312143404
 20
180.000228047926
 30
0.0
 10
102.0444312143404
 20
180.000228047926
 30
0.0
 10
102.0444312143404
 20
180.000228047926
 30
0.0
 10
101.7102927358128
 20
179.7381781048973
 30
0.0
 10
101.7102927358128
 20
179.7381781048973
 30
0.0
 10
101.7102927358128
 20
179.7381781048973
 30
0.0
 10
102.0797389450434
 20
179.5288263651383
 30
0.0
 10
102.0797389450434
 20
179.5288263651383
 30
0.0
 10
102.0797389450434
 20
179.5288263651383
 30
0.0
 10
101.7456004665158
 20
179.2667764221096
 30
0.0
 10
101.7456004665158
 20
179.2667764221096
 30
0.0
 10
101.7456004665158
 20
179.2667764221096
 30
0.0
 10
102.1150466757457
 20
179.0574246823506
 30
0.0
 10
102.1150466757457
 20
179.0574246823506
 30
0.0
 10
102.1150466757457
 20
179.0574246823506
 30
0.0
 10
101.8345960166973
 20
178.3147367425981
 30
0.0
 10
100.1788931322985
 20
178.2685537620606
 30
0.0
 10
98.8039120487886
 20
178.1584929286564
 30
0.0
 10
98.12668291169284
 20
178.6985576876957
 30
0.0
 10
98.12668291169284
 20
178.6985576876957
 30
0.0
 10
98.12641942116495
 20
178.7020756107016
 30
0.0
 10
98.45352205281515
 20
178.9635985716976
 30
0.0
 10
98.45352205281515
 20
178.9635985716976
 30
0.0
 10
98.45352205281515
 20
178.9635985716976
 30
0.0
 10
98.08055792014648
 20
179.1726868204404
 30
0.0
 10
98.08055792014648
 20
179.1726868204404
 30
0.0
 10
98.08055792014648
 20
179.1726868204404
 30
0.0
 10
98.4076605517957
 20
179.4342097814364
 30
0.0
 10
98.4076605517957
 20
179.4342097814364
 30
0.0
 10
98.4076605517957
 20
179.4342097814364
 30
0.0
 10
98.03469641912736
 20
179.6432980301792
 30
0.0
 10
98.03469641912736
 20
179.6432980301792
 30
0.0
 10
98.03469641912736
 20
179.6432980301792
 30
0.0
 10
98.36505348368806
 20
179.9086024051973
 30
0.0
 10
98.36505348368806
 20
179.9086024051973
 30
0.0
 10
98.36505348368806
 20
179.9086024051973
 30
0.0
 10
97.99208935101971
 20
180.11769065394
 30
0.0
 10
97.99208935101971
 20
180.11769065394
 30
0.0
 10
97.99208935101971
 20
180.11769065394
 30
0.0
 10
98.31919198266927
 20
180.3792136149364
 30
0.0
 10
98.31919198266927
 20
180.3792136149364
 30
0.0
 10
98.31919198266927
 20
180.3792136149364
 30
0.0
 10
97.94622785000028
 20
180.5883018636788
 30
0.0
 10
97.94622785000028
 20
180.5883018636788
 30
0.0
 10
97.94622785000028
 20
180.5883018636788
 30
0.0
 10
98.27658491456162
 20
180.8536062386972
 30
0.0
 10
98.27658491456162
 20
180.8536062386972
 30
0.0
 10
98.27658491456162
 20
180.8536062386972
 30
0.0
 10
97.90010285845425
 20
181.0624309964235
 30
0.0
 10
97.90010285845425
 20
181.0624309964235
 30
0.0
 10
97.90010285845425
 20
181.0624309964235
 30
0.0
 10
98.23072341354283
 20
181.3242174484363
 30
0.0
 10
98.23072341354283
 20
181.3242174484363
 30
0.0
 10
98.23072341354283
 20
181.3242174484363
 30
0.0
 10
97.85775928087384
 20
181.5333056971788
 30
0.0
 10
97.85775928087384
 20
181.5333056971788
 30
0.0
 10
97.85775928087384
 20
181.5333056971788
 30
0.0
 10
98.18837983596308
 20
181.7950921491913
 30
0.0
 10
98.18837983596308
 20
181.7950921491913
 30
0.0
 10
98.18837983596308
 20
181.7950921491913
 30
0.0
 10
97.8116342893278
 20
182.0074348299234
 30
0.0
 10
97.8116342893278
 20
182.0074348299234
 30
0.0
 10
97.8116342893278
 20
182.0074348299234
 30
0.0
 10
98.1422548444164
 20
182.2692212819357
 30
0.0
 10
98.1422548444164
 20
182.2692212819357
 30
0.0
 10
98.1422548444164
 20
182.2692212819357
 30
0.0
 10
97.7692907117474
 20
182.4783095306784
 30
0.0
 10
97.7692907117474
 20
182.4783095306784
 30
0.0
 10
97.7692907117474
 20
182.4783095306784
 30
0.0
 10
98.09991126683664
 20
182.740095982691
 30
0.0
 10
98.09991126683664
 20
182.740095982691
 30
0.0
 10
98.09991126683664
 20
182.740095982691
 30
0.0
 10
97.72342921072861
 20
182.9489207404175
 30
0.0
 10
97.72342921072861
 20
182.9489207404175
 30
0.0
 10
97.72342921072861
 20
182.9489207404175
 30
0.0
 10
98.05378627528995
 20
183.2142251154357
 30
0.0
 10
98.05378627528995
 20
183.2142251154357
 30
0.0
 10
98.05378627528995
 20
183.2142251154357
 30
0.0
 10
97.68082214262097
 20
183.4233133641784
 30
0.0
 10
97.68082214262097
 20
183.4233133641784
 30
0.0
 10
97.68082214262097
 20
183.4233133641784
 30
0.0
 10
98.00792477427116
 20
183.6848363251744
 30
0.0
 10
98.00792477427116
 20
183.6848363251744
 30
0.0
 10
98.00792477427116
 20
183.6848363251744
 30
0.0
 10
97.63496064160216
 20
183.8939245739172
 30
0.0
 10
97.63496064160216
 20
183.8939245739172
 30
0.0
 10
97.63496064160216
 20
183.8939245739172
 30
0.0
 10
97.96531770616288
 20
184.1592289489353
 30
0.0
 10
97.96531770616288
 20
184.1592289489353
 30
0.0
 10
97.96531770616288
 20
184.1592289489353
 30
0.0
 10
97.59235357349453
 20
184.3683171976784
 30
0.0
 10
97.59235357349453
 20
184.3683171976784
 30
0.0
 10
97.59235357349453
 20
184.3683171976784
 30
0.0
 10
97.91945620514473
 20
184.6298401586744
 30
0.0
 10
97.91945620514473
 20
184.6298401586744
 30
0.0
 10
97.91945620514473
 20
184.6298401586744
 30
0.0
 10
97.54649207247573
 20
184.8389284074171
 30
0.0
 10
97.54649207247573
 20
184.8389284074171
 30
0.0
 10
97.54649207247573
 20
184.8389284074171
 30
0.0
 10
97.87711262756464
 20
185.1007148594294
 30
0.0
 10
97.87711262756464
 20
185.1007148594294
 30
0.0
 10
97.87711262756464
 20
185.1007148594294
 30
0.0
 10
97.5038850043681
 20
185.313321031178
 30
0.0
 10
97.5038850043681
 20
185.313321031178
 30
0.0
 10
97.5038850043681
 20
185.313321031178
 30
0.0
 10
97.83098763601764
 20
185.574843992174
 30
0.0
 10
97.83098763601764
 20
185.574843992174
 30
0.0
 10
97.83098763601764
 20
185.574843992174
 30
0.0
 10
97.4580235033493
 20
185.7839322409168
 30
0.0
 10
97.4580235033493
 20
185.7839322409168
 30
0.0
 10
97.4580235033493
 20
185.7839322409168
 30
0.0
 10
97.78864405843788
 20
186.0457186929293
 30
0.0
 10
97.78864405843788
 20
186.0457186929293
 30
0.0
 10
97.78864405843788
 20
186.0457186929293
 30
0.0
 10
97.41541643524167
 20
186.258324864678
 30
0.0
 10
97.41541643524167
 20
186.258324864678
 30
0.0
 10
97.41541643524167
 20
186.258324864678
 30
0.0
 10
97.7425190668912
 20
186.519847825674
 30
0.0
 10
97.7425190668912
 20
186.519847825674
 30
0.0
 10
97.7425190668912
 20
186.519847825674
 30
0.0
 10
97.36955493422286
 20
186.7289360744164
 30
0.0
 10
97.36955493422286
 20
186.7289360744164
 30
0.0
 10
97.36955493422286
 20
186.7289360744164
 30
0.0
 10
97.70017548931145
 20
186.990722526429
 30
0.0
 10
97.70017548931145
 20
186.990722526429
 30
0.0
 10
97.70017548931145
 20
186.990722526429
 30
0.0
 10
97.32721135664247
 20
187.1998107751717
 30
0.0
 10
97.32721135664247
 20
187.1998107751717
 30
0.0
 10
97.32721135664247
 20
187.1998107751717
 30
0.0
 10
97.65405049776477
 20
187.4648516591733
 30
0.0
 10
97.65405049776477
 20
187.4648516591733
 30
0.0
 10
97.65405049776477
 20
187.4648516591733
 30
0.0
 10
97.28108636509643
 20
187.6739399079164
 30
0.0
 10
97.28108636509643
 20
187.6739399079164
 30
0.0
 10
97.28108636509643
 20
187.6739399079164
 30
0.0
 10
97.61170692018437
 20
187.9357263599293
 30
0.0
 10
97.61170692018437
 20
187.9357263599293
 30
0.0
 10
97.61170692018437
 20
187.9357263599293
 30
0.0
 10
97.23522486407698
 20
188.1445511176552
 30
0.0
 10
97.23522486407698
 20
188.1445511176552
 30
0.0
 10
97.23522486407698
 20
188.1445511176552
 30
0.0
 10
97.56558192863834
 20
188.4098554926733
 30
0.0
 10
97.56558192863834
 20
188.4098554926733
 30
0.0
 10
97.56558192863834
 20
188.4098554926733
 30
0.0
 10
97.19261779596935
 20
188.618943741416
 30
0.0
 10
97.19261779596935
 20
188.618943741416
 30
0.0
 10
97.19261779596935
 20
188.618943741416
 30
0.0
 10
97.52323835105794
 20
188.8807301934283
 30
0.0
 10
97.52323835105794
 20
188.8807301934283
 30
0.0
 10
97.52323835105794
 20
188.8807301934283
 30
0.0
 10
97.14675629495055
 20
189.0895549511548
 30
0.0
 10
97.14675629495055
 20
189.0895549511548
 30
0.0
 10
97.14675629495055
 20
189.0895549511548
 30
0.0
 10
97.47737685003914
 20
189.3513414031674
 30
0.0
 10
97.47737685003914
 20
189.3513414031674
 30
0.0
 10
97.47737685003914
 20
189.3513414031674
 30
0.0
 10
97.1041492268429
 20
189.563947574916
 30
0.0
 10
97.1041492268429
 20
189.563947574916
 30
0.0
 10
97.1041492268429
 20
189.563947574916
 30
0.0
 10
97.43476978193151
 20
189.8257340269283
 30
0.0
 10
97.43476978193151
 20
189.8257340269283
 30
0.0
 10
97.43476978193151
 20
189.8257340269283
 30
0.0
 10
97.05828772582412
 20
190.0345587846548
 30
0.0
 10
97.05828772582412
 20
190.0345587846548
 30
0.0
 10
97.05828772582412
 20
190.0345587846548
 30
0.0
 10
97.3889082809127
 20
190.296345236667
 30
0.0
 10
97.3889082809127
 20
190.296345236667
 30
0.0
 10
97.3889082809127
 20
190.296345236667
 30
0.0
 10
97.01568065771647
 20
190.5089514084157
 30
0.0
 10
97.01568065771647
 20
190.5089514084157
 30
0.0
 10
97.01568065771647
 20
190.5089514084157
 30
0.0
 10
97.34278328936603
 20
190.770474369412
 30
0.0
 10
97.34278328936603
 20
190.770474369412
 30
0.0
 10
97.34278328936603
 20
190.770474369412
 30
0.0
 10
96.96981915669768
 20
190.9795626181548
 30
0.0
 10
96.96981915669768
 20
190.9795626181548
 30
0.0
 10
96.96981915669768
 20
190.9795626181548
 30
0.0
 10
97.30043971178627
 20
191.2413490701667
 30
0.0
 10
97.30043971178627
 20
191.2413490701667
 30
0.0
 10
97.30043971178627
 20
191.2413490701667
 30
0.0
 10
96.92747557911792
 20
191.4504373189098
 30
0.0
 10
96.92747557911792
 20
191.4504373189098
 30
0.0
 10
96.92747557911792
 20
191.4504373189098
 30
0.0
 10
97.25431472023959
 20
191.7154782029117
 30
0.0
 10
97.25431472023959
 20
191.7154782029117
 30
0.0
 10
97.25431472023959
 20
191.7154782029117
 30
0.0
 10
96.88135058757125
 20
191.9245664516541
 30
0.0
 10
96.88135058757125
 20
191.9245664516541
 30
0.0
 10
96.88135058757125
 20
191.9245664516541
 30
0.0
 10
97.21197114265983
 20
192.1863529036667
 30
0.0
 10
97.21197114265983
 20
192.1863529036667
 30
0.0
 10
97.21197114265983
 20
192.1863529036667
 30
0.0
 10
96.83900700999084
 20
192.3954411524097
 30
0.0
 10
96.83900700999084
 20
192.3954411524097
 30
0.0
 10
96.83900700999084
 20
192.3954411524097
 30
0.0
 10
97.16610964164103
 20
192.6569641134058
 30
0.0
 10
97.16610964164103
 20
192.6569641134058
 30
0.0
 10
97.16610964164103
 20
192.6569641134058
 30
0.0
 10
96.79288201844416
 20
192.8695702851541
 30
0.0
 10
96.79288201844416
 20
192.8695702851541
 30
0.0
 10
96.79288201844416
 20
192.8695702851541
 30
0.0
 10
97.1235025735334
 20
193.1313567371666
 30
0.0
 10
97.1235025735334
 20
193.1313567371666
 30
0.0
 10
97.1235025735334
 20
193.1313567371666
 30
0.0
 10
96.7505384408644
 20
193.3404449859094
 30
0.0
 10
96.7505384408644
 20
193.3404449859094
 30
0.0
 10
96.7505384408644
 20
193.3404449859094
 30
0.0
 10
97.0776410725146
 20
193.6019679469051
 30
0.0
 10
97.0776410725146
 20
193.6019679469051
 30
0.0
 10
97.0776410725146
 20
193.6019679469051
 30
0.0
 10
96.77037097649226
 20
193.7841377268894
 30
0.0
 10
96.77037097649226
 20
193.7841377268894
 30
0.0
 10
96.77037097649226
 20
193.7841377268894
 30
0.0
 10
96.87286763832638
 20
194.1632688101117
 30
0.0
 10
96.87286763832638
 20
194.1632688101117
 30
0.0
 10
96.87286763832638
 20
194.1632688101117
 30
0.0
 10
96.8012624629681
 20
194.8831255712352
 30
0.0
 10
98.74552761592754
 20
194.9969113052064
 30
0.0
 10
100.8037621689337
 20
195.0060282334797
 30
0.0
 10
100.7308831419852
 20
194.4203936569762
 30
0.0
 10
100.7308831419852
 20
194.4203936569762
 30
0.0
 10
100.7308831419852
 20
194.4203936569762
 30
0.0
 10
100.887395361983
 20
194.078350523993
 30
0.0
 10
100.887395361983
 20
194.078350523993
 30
0.0
 10
100.887395361983
 20
194.078350523993
 30
0.0
 10
100.67911165567
 20
193.8363400265703
 30
0.0
 10
100.67911165567
 20
193.8363400265703
 30
0.0
 10
100.67911165567
 20
193.8363400265703
 30
0.0
 10
101.048557864899
 20
193.6269882868114
 30
0.0
 10
101.048557864899
 20
193.6269882868114
 30
0.0
  0
HATCH
  5
90
330
8B
100
AcDbEntity
  8
_U+56FE_U+5C42 1
 62
   254
420
 13358815
100
AcDbHatch
 10
0.0
 20
0.0
 30
0.0
210
0.0
220
0.0
230
1.0
  2
SOLID
 70
     1
 71
     0
 91
        1
 92
        1
 93
        1
 72
     4
 94
        3
 73
     0
 74
     1
 95
      407
 96
      403
 40
0.0
 40
0.0
 40
0.0
 40
0.0
 40
1.0
 40
1.0
 40
1.0
 40
2.0
 40
2.0
 40
2.0
 40
3.0
 40
3.0
 40
3.0
 40
4.0
 40
4.0
 40
4.0
 40
5.0
 40
5.0
 40
5.0
 40
6.0
 40
6.0
 40
6.0
 40
7.0
 40
7.0
 40
7.0
 40
8.0
 40
8.0
 40
8.0
 40
9.0
 40
9.0
 40
9.0
 40
10.0
 40
10.0
 40
10.0
 40
11.0
 40
11.0
 40
11.0
 40
12.0
 40
12.0
 40
12.0
 40
13.0
 40
13.0
 40
13.0
 40
14.0
 40
14.0
 40
14.0
 40
15.0
 40
15.0
 40
15.0
 40
16.0
 40
16.0
 40
16.0
 40
17.0
 40
17.0
 40
17.0
 40
18.0
 40
18.0
 40
18.0
 40
19.0
 40
19.0
 40
19.0
 40
20.0
 40
20.0
 40
20.0
 40
21.0
 40
21.0
 40
21.0
 40
22.0
 40
22.0
 40
22.0
 40
23.0
 40
23.0
 40
23.0
 40
24.0
 40
24.0
 40
24.0
 40
25.0
 40
25.0
 40
25.0
 40
26.0
 40
26.0
 40
26.0
 40
27.0
 40
27.0
 40
27.0
 40
28.0
 40
28.0
 40
28.0
 40
29.0
 40
29.0
 40
29.0
 40
30.0
 40
30.0
 40
30.0
 40
31.0
 40
31.0
 40
31.0
 40
32.0
 40
32.0
 40
32.0
 40
33.0
 40
33.0
 40
33.0
 40
34.0
 40
34.0
 40
34.0
 40
35.0
 40
35.0
 40
35.0
 40
36.0
 40
36.0
 40
36.0
 40
37.0
 40
37.0
 40
37.0
 40
38.0
 40
38.0
 40
38.0
 40
39.0
 40
39.0
 40
39.0
 40
40.0
 40
40.0
 40
40.0
 40
41.0
 40
41.0
 40
41.0
 40
42.0
 40
42.0
 40
42.0
 40
43.0
 40
43.0
 40
43.0
 40
44.0
 40
44.0
 40
44.0
 40
45.0
 40
45.0
 40
45.0
 40
46.0
 40
46.0
 40
46.0
 40
47.0
 40
47.0
 40
47.0
 40
48.0
 40
48.0
 40
48.0
 40
49.0
 40
49.0
 40
49.0
 40
50.0
 40
50.0
 40
50.0
 40
51.0
 40
51.0
 40
51.0
 40
52.0
 40
52.0
 40
52.0
 40
53.0
 40
53.0
 40
53.0
 40
54.0
 40
54.0
 40
54.0
 40
55.0
 40
55.0
 40
55.0
 40
56.0
 40
56.0
 40
56.0
 40
57.0
 40
57.0
 40
57.0
 40
58.0
 40
58.0
 40
58.0
 40
59.0
 40
59.0
 40
59.0
 40
60.0
 40
60.0
 40
60.0
 40
61.0
 40
61.0
 40
61.0
 40
62.0
 40
62.0
 40
62.0
 40
63.0
 40
63.0
 40
63.0
 40
64.0
 40
64.0
 40
64.0
 40
65.0
 40
65.0
 40
65.0
 40
66.0
 40
66.0
 40
66.0
 40
67.0
 40
67.0
 40
67.0
 40
68.0
 40
68.0
 40
68.0
 40
69.0
 40
69.0
 40
69.0
 40
70.0
 40
70.0
 40
70.0
 40
71.0
 40
71.0
 40
71.0
 40
72.0
 40
72.0
 40
72.0
 40
73.0
 40
73.0
 40
73.0
 40
74.0
 40
74.0
 40
74.0
 40
75.0
 40
75.0
 40
75.0
 40
76.0
 40
76.0
 40
76.0
 40
77.0
 40
77.0
 40
77.0
 40
78.0
 40
78.0
 40
78.0
 40
79.0
 40
79.0
 40
79.0
 40
80.0
 40
80.0
 40
80.0
 40
81.0
 40
81.0
 40
81.0
 40
82.0
 40
82.0
 40
82.0
 40
83.0
 40
83.0
 40
83.0
 40
84.0
 40
84.0
 40
84.0
 40
85.0
 40
85.0
 40
85.0
 40
86.0
 40
86.0
 40
86.0
 40
87.0
 40
87.0
 40
87.0
 40
88.0
 40
88.0
 40
88.0
 40
89.0
 40
89.0
 40
89.0
 40
90.0
 40
90.0
 40
90.0
 40
91.0
 40
91.0
 40
91.0
 40
92.0
 40
92.0
 40
92.0
 40
93.0
 40
93.0
 40
93.0
 40
94.0
 40
94.0
 40
94.0
 40
95.0
 40
95.0
 40
95.0
 40
96.0
 40
96.0
 40
96.0
 40
97.0
 40
97.0
 40
97.0
 40
98.0
 40
98.0
 40
98.0
 40
99.0
 40
99.0
 40
99.0
 40
100.0
 40
100.0
 40
100.0
 40
101.0
 40
101.0
 40
101.0
 40
102.0
 40
102.0
 40
102.0
 40
103.0
 40
103.0
 40
103.0
 40
104.0
 40
104.0
 40
104.0
 40
105.0
 40
105.0
 40
105.0
 40
106.0
 40
106.0
 40
106.0
 40
107.0
 40
107.0
 40
107.0
 40
108.0
 40
108.0
 40
108.0
 40
109.0
 40
109.0
 40
109.0
 40
110.0
 40
110.0
 40
110.0
 40
111.0
 40
111.0
 40
111.0
 40
112.0
 40
112.0
 40
112.0
 40
113.0
 40
113.0
 40
113.0
 40
114.0
 40
114.0
 40
114.0
 40
115.0
 40
115.0
 40
115.0
 40
116.0
 40
116.0
 40
116.0
 40
117.0
 40
117.0
 40
117.0
 40
118.0
 40
118.0
 40
118.0
 40
119.0
 40
119.0
 40
119.0
 40
120.0
 40
120.0
 40
120.0
 40
121.0
 40
121.0
 40
121.0
 40
122.0
 40
122.0
 40
122.0
 40
123.0
 40
123.0
 40
123.0
 40
124.0
 40
124.0
 40
124.0
 40
125.0
 40
125.0
 40
125.0
 40
126.0
 40
126.0
 40
126.0
 40
127.0
 40
127.0
 40
127.0
 40
128.0
 40
128.0
 40
128.0
 40
129.0
 40
129.0
 40
129.0
 40
130.0
 40
130.0
 40
130.0
 40
131.0
 40
131.0
 40
131.0
 40
132.0
 40
132.0
 40
132.0
 40
133.0
 40
133.0
 40
133.0
 40
134.0
 40
134.0
 40
134.0
 40
134.0
 10
101.048557864899
 20
193.6269882868114
 10
101.048557864899
 20
193.6269882868114
 10
100.7109014629329
 20
193.3646748527664
 10
100.7109014629329
 20
193.3646748527664
 10
100.7109014629329
 20
193.3646748527664
 10
101.0803476721629
 20
193.1553231130075
 10
101.0803476721629
 20
193.1553231130075
 10
101.0803476721629
 20
193.1553231130075
 10
100.745945703108
 20
192.8967910929842
 10
100.745945703108
 20
192.8967910929842
 10
100.745945703108
 20
192.8967910929842
 10
101.1153919123379
 20
192.6874393532253
 10
101.1153919123379
 20
192.6874393532253
 10
101.1153919123379
 20
192.6874393532253
 10
100.7812534338103
 20
192.4253894101965
 10
100.7812534338103
 20
192.4253894101965
 10
100.7812534338103
 20
192.4253894101965
 10
101.1506996430402
 20
192.2160376704376
 10
101.1506996430402
 20
192.2160376704376
 10
101.1506996430402
 20
192.2160376704376
 10
100.8162976739854
 20
191.9575056504147
 10
100.8162976739854
 20
191.9575056504147
 10
100.8162976739854
 20
191.9575056504147
 10
101.1857438832153
 20
191.7481539106551
 10
101.1857438832153
 20
191.7481539106551
 10
101.1857438832153
 20
191.7481539106551
 10
100.8480874812486
 20
191.4858404766108
 10
100.8480874812486
 20
191.4858404766108
 10
100.8480874812486
 20
191.4858404766108
 10
101.2175336904786
 20
191.2764887368512
 10
101.2175336904786
 20
191.2764887368512
 10
101.2175336904786
 20
191.2764887368512
 10
100.8833952119516
 20
191.014438793823
 10
100.8833952119516
 20
191.014438793823
 10
100.8833952119516
 20
191.014438793823
 10
101.2525779306536
 20
190.8086049770693
 10
101.2525779306536
 20
190.8086049770693
 10
101.2525779306536
 20
190.8086049770693
 10
100.918439452126
 20
190.5465550340402
 10
100.918439452126
 20
190.5465550340402
 10
100.918439452126
 20
190.5465550340402
 10
101.287885661356
 20
190.3372032942813
 10
101.287885661356
 20
190.3372032942813
 10
101.287885661356
 20
190.3372032942813
 10
100.953747182829
 20
190.0751533512525
 10
100.953747182829
 20
190.0751533512525
 10
100.953747182829
 20
190.0751533512525
 10
101.3231933920589
 20
189.8658016114936
 10
101.3231933920589
 20
189.8658016114936
 10
101.3231933920589
 20
189.8658016114936
 10
100.9887914230034
 20
189.6072695914707
 10
100.9887914230034
 20
189.6072695914707
 10
100.9887914230034
 20
189.6072695914707
 10
101.3582376322333
 20
189.3979178517118
 10
101.3582376322333
 20
189.3979178517118
 10
101.3582376322333
 20
189.3979178517118
 10
101.0205812302676
 20
189.1356044176664
 10
101.0205812302676
 20
189.1356044176664
 10
101.0205812302676
 20
189.1356044176664
 10
101.3900274394972
 20
188.9262526779075
 10
101.3900274394972
 20
188.9262526779075
 10
101.3900274394972
 20
188.9262526779075
 10
101.0556254704424
 20
188.6677206578846
 10
101.0556254704424
 20
188.6677206578846
 10
101.0556254704424
 20
188.6677206578846
 10
101.4250716796723
 20
188.4583689181253
 10
101.4250716796723
 20
188.4583689181253
 10
101.4250716796723
 20
188.4583689181253
 10
101.0909332011447
 20
188.1963189750969
 10
101.0909332011447
 20
188.1963189750969
 10
101.0909332011447
 20
188.1963189750969
 10
101.4603794103746
 20
187.9869672353383
 10
101.4603794103746
 20
187.9869672353383
 10
101.4603794103746
 20
187.9869672353383
 10
101.126240931847
 20
187.7249172923088
 10
101.126240931847
 20
187.7249172923088
 10
101.126240931847
 20
187.7249172923088
 10
101.4954236505497
 20
187.5190834755558
 10
101.4954236505497
 20
187.5190834755558
 10
101.4954236505497
 20
187.5190834755558
 10
101.1612851720221
 20
187.2570335325267
 10
101.1612851720221
 20
187.2570335325267
 10
101.1612851720221
 20
187.2570335325267
 10
101.530731381252
 20
187.0476817927681
 10
101.530731381252
 20
187.0476817927681
 10
101.530731381252
 20
187.0476817927681
 10
101.193074979286
 20
186.7853683587231
 10
101.193074979286
 20
186.7853683587231
 10
101.193074979286
 20
186.7853683587231
 10
101.5625211885159
 20
186.5760166189635
 10
101.5625211885159
 20
186.5760166189635
 10
101.5625211885159
 20
186.5760166189635
 10
101.2281192194604
 20
186.3174845989409
 10
101.2281192194604
 20
186.3174845989409
 10
101.2281192194604
 20
186.3174845989409
 10
101.5975654286903
 20
186.1081328591816
 10
101.5975654286903
 20
186.1081328591816
 10
101.5975654286903
 20
186.1081328591816
 10
101.2634269501633
 20
185.8460829161532
 10
101.2634269501633
 20
185.8460829161532
 10
101.2634269501633
 20
185.8460829161532
 10
101.6328731593933
 20
185.6367311763939
 10
101.6328731593933
 20
185.6367311763939
 10
101.6328731593933
 20
185.6367311763939
 10
101.2984711903378
 20
185.3781991563714
 10
101.2984711903378
 20
185.3781991563714
 10
101.2984711903378
 20
185.3781991563714
 10
101.6679173995677
 20
185.1688474166118
 10
101.6679173995677
 20
185.1688474166118
 10
101.6679173995677
 20
185.1688474166118
 10
101.3337789210407
 20
184.9067974735833
 10
101.3337789210407
 20
184.9067974735833
 10
101.3337789210407
 20
184.9067974735833
 10
101.7032251302707
 20
184.6974457338241
 10
101.7032251302707
 20
184.6974457338241
 10
101.7032251302707
 20
184.6974457338241
 10
101.365568728304
 20
184.4351322997791
 10
101.365568728304
 20
184.4351322997791
 10
101.365568728304
 20
184.4351322997791
 10
101.7347514470061
 20
184.229298483026
 10
101.7347514470061
 20
184.229298483026
 10
101.7347514470061
 20
184.229298483026
 10
101.4006129684791
 20
183.9672485399969
 10
101.4006129684791
 20
183.9672485399969
 10
101.4006129684791
 20
183.9672485399969
 10
101.770059177709
 20
183.757896800238
 10
101.770059177709
 20
183.757896800238
 10
101.770059177709
 20
183.757896800238
 10
101.4359206991814
 20
183.4958468572092
 10
101.4359206991814
 20
183.4958468572092
 10
101.4359206991814
 20
183.4958468572092
 10
101.8051034178838
 20
183.2900130404561
 10
101.8051034178838
 20
183.2900130404561
 10
101.8051034178838
 20
183.2900130404561
 10
101.4709649393564
 20
183.0279630974274
 10
101.4709649393564
 20
183.0279630974274
 10
101.4709649393564
 20
183.0279630974274
 10
101.8404111485858
 20
182.8186113576684
 10
101.8404111485858
 20
182.8186113576684
 10
101.8404111485858
 20
182.8186113576684
 10
101.5062726700588
 20
182.5565614146393
 10
101.5062726700588
 20
182.5565614146393
 10
101.5062726700588
 20
182.5565614146393
 10
101.8757188792887
 20
182.3472096748804
 10
101.8757188792887
 20
182.3472096748804
 10
101.8757188792887
 20
182.3472096748804
 10
101.5377989867948
 20
182.0884141638413
 10
101.5377989867948
 20
182.0884141638413
 10
101.5377989867948
 20
182.0884141638413
 10
101.9072451960247
 20
181.879062424082
 10
101.9072451960247
 20
181.879062424082
 10
101.9072451960247
 20
181.879062424082
 10
101.5731067174977
 20
181.6170124810536
 10
101.5731067174977
 20
181.6170124810536
 10
101.5731067174977
 20
181.6170124810536
 10
101.942552926727
 20
181.4076607412943
 10
101.942552926727
 20
181.4076607412943
 10
101.942552926727
 20
181.4076607412943
 10
101.6084144482001
 20
181.1456107982658
 10
101.6084144482001
 20
181.1456107982658
 10
101.6084144482001
 20
181.1456107982658
 10
101.9775971669021
 20
180.9397769815121
 10
101.9775971669021
 20
180.9397769815121
 10
101.9775971669021
 20
180.9397769815121
 10
101.6434586883745
 20
180.6777270384837
 10
101.6434586883745
 20
180.6777270384837
 10
101.6434586883745
 20
180.6777270384837
 10
102.0129048976044
 20
180.4683752987244
 10
102.0129048976044
 20
180.4683752987244
 10
102.0129048976044
 20
180.4683752987244
 10
101.6787664190774
 20
180.206325355696
 10
101.6787664190774
 20
180.206325355696
 10
101.6787664190774
 20
180.206325355696
 10
102.0444312143404
 20
180.000228047926
 10
102.0444312143404
 20
180.000228047926
 10
102.0444312143404
 20
180.000228047926
 10
101.7102927358128
 20
179.7381781048973
 10
101.7102927358128
 20
179.7381781048973
 10
101.7102927358128
 20
179.7381781048973
 10
102.0797389450434
 20
179.5288263651383
 10
102.0797389450434
 20
179.5288263651383
 10
102.0797389450434
 20
179.5288263651383
 10
101.7456004665158
 20
179.2667764221096
 10
101.7456004665158
 20
179.2667764221096
 10
101.7456004665158
 20
179.2667764221096
 10
102.1150466757457
 20
179.0574246823506
 10
102.1150466757457
 20
179.0574246823506
 10
102.1150466757457
 20
179.0574246823506
 10
101.8345960166973
 20
178.3147367425981
 10
100.1788931322985
 20
178.2685537620606
 10
98.8039120487886
 20
178.1584929286564
 10
98.12668291169284
 20
178.6985576876957
 10
98.12668291169284
 20
178.6985576876957
 10
98.12641942116495
 20
178.7020756107016
 10
98.45352205281515
 20
178.9635985716976
 10
98.45352205281515
 20
178.9635985716976
 10
98.45352205281515
 20
178.9635985716976
 10
98.08055792014648
 20
179.1726868204404
 10
98.08055792014648
 20
179.1726868204404
 10
98.08055792014648
 20
179.1726868204404
 10
98.4076605517957
 20
179.4342097814364
 10
98.4076605517957
 20
179.4342097814364
 10
98.4076605517957
 20
179.4342097814364
 10
98.03469641912736
 20
179.6432980301792
 10
98.03469641912736
 20
179.6432980301792
 10
98.03469641912736
 20
179.6432980301792
 10
98.36505348368806
 20
179.9086024051973
 10
98.36505348368806
 20
179.9086024051973
 10
98.36505348368806
 20
179.9086024051973
 10
97.99208935101971
 20
180.11769065394
 10
97.99208935101971
 20
180.11769065394
 10
97.99208935101971
 20
180.11769065394
 10
98.31919198266927
 20
180.3792136149364
 10
98.31919198266927
 20
180.3792136149364
 10
98.31919198266927
 20
180.3792136149364
 10
97.94622785000028
 20
180.5883018636788
 10
97.94622785000028
 20
180.5883018636788
 10
97.94622785000028
 20
180.5883018636788
 10
98.27658491456162
 20
180.8536062386972
 10
98.27658491456162
 20
180.8536062386972
 10
98.27658491456162
 20
180.8536062386972
 10
97.90010285845425
 20
181.0624309964235
 10
97.90010285845425
 20
181.0624309964235
 10
97.90010285845425
 20
181.0624309964235
 10
98.23072341354283
 20
181.3242174484363
 10
98.23072341354283
 20
181.3242174484363
 10
98.23072341354283
 20
181.3242174484363
 10
97.85775928087384
 20
181.5333056971788
 10
97.85775928087384
 20
181.5333056971788
 10
97.85775928087384
 20
181.5333056971788
 10
98.18837983596308
 20
181.7950921491913
 10
98.18837983596308
 20
181.7950921491913
 10
98.18837983596308
 20
181.7950921491913
 10
97.8116342893278
 20
182.0074348299234
 10
97.8116342893278
 20
182.0074348299234
 10
97.8116342893278
 20
182.0074348299234
 10
98.1422548444164
 20
182.2692212819357
 10
98.1422548444164
 20
182.2692212819357
 10
98.1422548444164
 20
182.2692212819357
 10
97.7692907117474
 20
182.4783095306784
 10
97.7692907117474
 20
182.4783095306784
 10
97.7692907117474
 20
182.4783095306784
 10
98.09991126683664
 20
182.740095982691
 10
98.09991126683664
 20
182.740095982691
 10
98.09991126683664
 20
182.740095982691
 10
97.72342921072861
 20
182.9489207404175
 10
97.72342921072861
 20
182.9489207404175
 10
97.72342921072861
 20
182.9489207404175
 10
98.05378627528995
 20
183.2142251154357
 10
98.05378627528995
 20
183.2142251154357
 10
98.05378627528995
 20
183.2142251154357
 10
97.68082214262097
 20
183.4233133641784
 10
97.68082214262097
 20
183.4233133641784
 10
97.68082214262097
 20
183.4233133641784
 10
98.00792477427116
 20
183.6848363251744
 10
98.00792477427116
 20
183.6848363251744
 10
98.00792477427116
 20
183.6848363251744
 10
97.63496064160216
 20
183.8939245739172
 10
97.63496064160216
 20
183.8939245739172
 10
97.63496064160216
 20
183.8939245739172
 10
97.96531770616288
 20
184.1592289489353
 10
97.96531770616288
 20
184.1592289489353
 10
97.96531770616288
 20
184.1592289489353
 10
97.59235357349453
 20
184.3683171976784
 10
97.59235357349453
 20
184.3683171976784
 10
97.59235357349453
 20
184.3683171976784
 10
97.91945620514473
 20
184.6298401586744
 10
97.91945620514473
 20
184.6298401586744
 10
97.91945620514473
 20
184.6298401586744
 10
97.54649207247573
 20
184.8389284074171
 10
97.54649207247573
 20
184.8389284074171
 10
97.54649207247573
 20
184.8389284074171
 10
97.87711262756464
 20
185.1007148594294
 10
97.87711262756464
 20
185.1007148594294
 10
97.87711262756464
 20
185.1007148594294
 10
97.5038850043681
 20
185.313321031178
 10
97.5038850043681
 20
185.313321031178
 10
97.5038850043681
 20
185.313321031178
 10
97.83098763601764
 20
185.574843992174
 10
97.83098763601764
 20
185.574843992174
 10
97.83098763601764
 20
185.574843992174
 10
97.4580235033493
 20
185.7839322409168
 10
97.4580235033493
 20
185.7839322409168
 10
97.4580235033493
 20
185.7839322409168
 10
97.78864405843788
 20
186.0457186929293
 10
97.78864405843788
 20
186.0457186929293
 10
97.78864405843788
 20
186.0457186929293
 10
97.41541643524167
 20
186.258324864678
 10
97.41541643524167
 20
186.258324864678
 10
97.41541643524167
 20
186.258324864678
 10
97.7425190668912
 20
186.519847825674
 10
97.7425190668912
 20
186.519847825674
 10
97.7425190668912
 20
186.519847825674
 10
97.36955493422286
 20
186.7289360744164
 10
97.36955493422286
 20
186.7289360744164
 10
97.36955493422286
 20
186.7289360744164
 10
97.70017548931145
 20
186.990722526429
 10
97.70017548931145
 20
186.990722526429
 10
97.70017548931145
 20
186.990722526429
 10
97.32721135664247
 20
187.1998107751717
 10
97.32721135664247
 20
187.1998107751717
 10
97.32721135664247
 20
187.1998107751717
 10
97.65405049776477
 20
187.4648516591733
 10
97.65405049776477
 20
187.4648516591733
 10
97.65405049776477
 20
187.4648516591733
 10
97.28108636509643
 20
187.6739399079164
 10
97.28108636509643
 20
187.6739399079164
 10
97.28108636509643
 20
187.6739399079164
 10
97.61170692018437
 20
187.9357263599293
 10
97.61170692018437
 20
187.9357263599293
 10
97.61170692018437
 20
187.9357263599293
 10
97.23522486407698
 20
188.1445511176552
 10
97.23522486407698
 20
188.1445511176552
 10
97.23522486407698
 20
188.1445511176552
 10
97.56558192863834
 20
188.4098554926733
 10
97.56558192863834
 20
188.4098554926733
 10
97.56558192863834
 20
188.4098554926733
 10
97.19261779596935
 20
188.618943741416
 10
97.19261779596935
 20
188.618943741416
 10
97.19261779596935
 20
188.618943741416
 10
97.52323835105794
 20
188.8807301934283
 10
97.52323835105794
 20
188.8807301934283
 10
97.52323835105794
 20
188.8807301934283
 10
97.14675629495055
 20
189.0895549511548
 10
97.14675629495055
 20
189.0895549511548
 10
97.14675629495055
 20
189.0895549511548
 10
97.47737685003914
 20
189.3513414031674
 10
97.47737685003914
 20
189.3513414031674
 10
97.47737685003914
 20
189.3513414031674
 10
97.1041492268429
 20
189.563947574916
 10
97.1041492268429
 20
189.563947574916
 10
97.1041492268429
 20
189.563947574916
 10
97.43476978193151
 20
189.8257340269283
 10
97.43476978193151
 20
189.8257340269283
 10
97.43476978193151
 20
189.8257340269283
 10
97.05828772582412
 20
190.0345587846548
 10
97.05828772582412
 20
190.0345587846548
 10
97.05828772582412
 20
190.0345587846548
 10
97.3889082809127
 20
190.296345236667
 10
97.3889082809127
 20
190.296345236667
 10
97.3889082809127
 20
190.296345236667
 10
97.01568065771647
 20
190.5089514084157
 10
97.01568065771647
 20
190.5089514084157
 10
97.01568065771647
 20
190.5089514084157
 10
97.34278328936603
 20
190.770474369412
 10
97.34278328936603
 20
190.770474369412
 10
97.34278328936603
 20
190.770474369412
 10
96.96981915669768
 20
190.9795626181548
 10
96.96981915669768
 20
190.9795626181548
 10
96.96981915669768
 20
190.9795626181548
 10
97.30043971178627
 20
191.2413490701667
 10
97.30043971178627
 20
191.2413490701667
 10
97.30043971178627
 20
191.2413490701667
 10
96.92747557911792
 20
191.4504373189098
 10
96.92747557911792
 20
191.4504373189098
 10
96.92747557911792
 20
191.4504373189098
 10
97.25431472023959
 20
191.7154782029117
 10
97.25431472023959
 20
191.7154782029117
 10
97.25431472023959
 20
191.7154782029117
 10
96.88135058757125
 20
191.9245664516541
 10
96.88135058757125
 20
191.9245664516541
 10
96.88135058757125
 20
191.9245664516541
 10
97.21197114265983
 20
192.1863529036667
 10
97.21197114265983
 20
192.1863529036667
 10
97.21197114265983
 20
192.1863529036667
 10
96.83900700999084
 20
192.3954411524097
 10
96.83900700999084
 20
192.3954411524097
 10
96.83900700999084
 20
192.3954411524097
 10
97.16610964164103
 20
192.6569641134058
 10
97.16610964164103
 20
192.6569641134058
 10
97.16610964164103
 20
192.6569641134058
 10
96.79288201844416
 20
192.8695702851541
 10
96.79288201844416
 20
192.8695702851541
 10
96.79288201844416
 20
192.8695702851541
 10
97.1235025735334
 20
193.1313567371666
 10
97.1235025735334
 20
193.1313567371666
 10
97.1235025735334
 20
193.1313567371666
 10
96.7505384408644
 20
193.3404449859094
 10
96.7505384408644
 20
193.3404449859094
 10
96.7505384408644
 20
193.3404449859094
 10
97.0776410725146
 20
193.6019679469051
 10
97.0776410725146
 20
193.6019679469051
 10
97.0776410725146
 20
193.6019679469051
 10
96.77037097649226
 20
193.7841377268894
 10
96.77037097649226
 20
193.7841377268894
 10
96.77037097649226
 20
193.7841377268894
 10
96.87286763832638
 20
194.1632688101117
 10
96.87286763832638
 20
194.1632688101117
 10
96.87286763832638
 20
194.1632688101117
 10
96.8012624629681
 20
194.8831255712352
 10
98.74552761592754
 20
194.9969113052064
 10
100.8037621689337
 20
195.0060282334797
 10
100.7308831419852
 20
194.4203936569762
 10
100.7308831419852
 20
194.4203936569762
 10
100.7308831419852
 20
194.4203936569762
 10
100.887395361983
 20
194.078350523993
 10
100.887395361983
 20
194.078350523993
 10
100.887395361983
 20
194.078350523993
 10
100.67911165567
 20
193.8363400265703
 10
100.67911165567
 20
193.8363400265703
 10
100.67911165567
 20
193.8363400265703
 10
101.048557864899
 20
193.6269882868114
 10
101.048557864899
 20
193.6269882868114
 97
        0
 97
        0
 75
     2
 76
     1
 98
        0
  0
ENDBLK
  5
8E
330
8B
100
AcDbEntity
  8
0
100
AcDbBlockEnd
  0
BLOCK
  5
93
330
91
100
AcDbEntity
  8
0
100
AcDbBlockBegin
  2
block 4
 70
     0
 10
0.0
 20
0.0
 30
0.0
  3
block 4
  1

  0
SPLINE
  5
95
330
91
100
AcDbEntity
  8
_U+56FE_U+5C42 1
 62
     7
420
 16777215
370
     9
100
AcDbSpline
210
0.0
220
0.0
230
1.0
 70
    11
 71
     3
 72
   407
 73
   403
 74
     0
 42
0.0000000001
 43
0.0000000001
 12
1.0
 22
0.0
 32
0.0
 13
1.0
 23
0.0
 33
0.0
 40
0.0
 40
0.0
 40
0.0
 40
0.0
 40
1.0
 40
1.0
 40
1.0
 40
2.0
 40
2.0
 40
2.0
 40
3.0
 40
3.0
 40
3.0
 40
4.0
 40
4.0
 40
4.0
 40
5.0
 40
5.0
 40
5.0
 40
6.0
 40
6.0
 40
6.0
 40
7.0
 40
7.0
 40
7.0
 40
8.0
 40
8.0
 40
8.0
 40
9.0
 40
9.0
 40
9.0
 40
10.0
 40
10.0
 40
10.0
 40
11.0
 40
11.0
 40
11.0
 40
12.0
 40
12.0
 40
12.0
 40
13.0
 40
13.0
 40
13.0
 40
14.0
 40
14.0
 40
14.0
 40
15.0
 40
15.0
 40
15.0
 40
16.0
 40
16.0
 40
16.0
 40
17.0
 40
17.0
 40
17.0
 40
18.0
 40
18.0
 40
18.0
 40
19.0
 40
19.0
 40
19.0
 40
20.0
 40
20.0
 40
20.0
 40
21.0
 40
21.0
 40
21.0
 40
22.0
 40
22.0
 40
22.0
 40
23.0
 40
23.0
 40
23.0
 40
24.0
 40
24.0
 40
24.0
 40
25.0
 40
25.0
 40
25.0
 40
26.0
 40
26.0
 40
26.0
 40
27.0
 40
27.0
 40
27.0
 40
28.0
 40
28.0
 40
28.0
 40
29.0
 40
29.0
 40
29.0
 40
30.0
 40
30.0
 40
30.0
 40
31.0
 40
31.0
 40
31.0
 40
32.0
 40
32.0
 40
32.0
 40
33.0
 40
33.0
 40
33.0
 40
34.0
 40
34.0
 40
34.0
 40
35.0
 40
35.0
 40
35.0
 40
36.0
 40
36.0
 40
36.0
 40
37.0
 40
37.0
 40
37.0
 40
38.0
 40
38.0
 40
38.0
 40
39.0
 40
39.0
 40
39.0
 40
40.0
 40
40.0
 40
40.0
 40
41.0
 40
41.0
 40
41.0
 40
42.0
 40
42.0
 40
42.0
 40
43.0
 40
43.0
 40
43.0
 40
44.0
 40
44.0
 40
44.0
 40
45.0
 40
45.0
 40
45.0
 40
46.0
 40
46.0
 40
46.0
 40
47.0
 40
47.0
 40
47.0
 40
48.0
 40
48.0
 40
48.0
 40
49.0
 40
49.0
 40
49.0
 40
50.0
 40
50.0
 40
50.0
 40
51.0
 40
51.0
 40
51.0
 40
52.0
 40
52.0
 40
52.0
 40
53.0
 40
53.0
 40
53.0
 40
54.0
 40
54.0
 40
54.0
 40
55.0
 40
55.0
 40
55.0
 40
56.0
 40
56.0
 40
56.0
 40
57.0
 40
57.0
 40
57.0
 40
58.0
 40
58.0
 40
58.0
 40
59.0
 40
59.0
 40
59.0
 40
60.0
 40
60.0
 40
60.0
 40
61.0
 40
61.0
 40
61.0
 40
62.0
 40
62.0
 40
62.0
 40
63.0
 40
63.0
 40
63.0
 40
64.0
 40
64.0
 40
64.0
 40
65.0
 40
65.0
 40
65.0
 40
66.0
 40
66.0
 40
66.0
 40
67.0
 40
67.0
 40
67.0
 40
68.0
 40
68.0
 40
68.0
 40
69.0
 40
69.0
 40
69.0
 40
70.0
 40
70.0
 40
70.0
 40
71.0
 40
71.0
 40
71.0
 40
72.0
 40
72.0
 40
72.0
 40
73.0
 40
73.0
 40
73.0
 40
74.0
 40
74.0
 40
74.0
 40
75.0
 40
75.0
 40
75.0
 40
76.0
 40
76.0
 40
76.0
 40
77.0
 40
77.0
 40
77.0
 40
78.0
 40
78.0
 40
78.0
 40
79.0
 40
79.0
 40
79.0
 40
80.0
 40
80.0
 40
80.0
 40
81.0
 40
81.0
 40
81.0
 40
82.0
 40
82.0
 40
82.0
 40
83.0
 40
83.0
 40
83.0
 40
84.0
 40
84.0
 40
84.0
 40
85.0
 40
85.0
 40
85.0
 40
86.0
 40
86.0
 40
86.0
 40
87.0
 40
87.0
 40
87.0
 40
88.0
 40
88.0
 40
88.0
 40
89.0
 40
89.0
 40
89.0
 40
90.0
 40
90.0
 40
90.0
 40
91.0
 40
91.0
 40
91.0
 40
92.0
 40
92.0
 40
92.0
 40
93.0
 40
93.0
 40
93.0
 40
94.0
 40
94.0
 40
94.0
 40
95.0
 40
95.0
 40
95.0
 40
96.0
 40
96.0
 40
96.0
 40
97.0
 40
97.0
 40
97.0
 40
98.0
 40
98.0
 40
98.0
 40
99.0
 40
99.0
 40
99.0
 40
100.0
 40
100.0
 40
100.0
 40
101.0
 40
101.0
 40
101.0
 40
102.0
 40
102.0
 40
102.0
 40
103.0
 40
103.0
 40
103.0
 40
104.0
 40
104.0
 40
104.0
 40
105.0
 40
105.0
 40
105.0
 40
106.0
 40
106.0
 40
106.0
 40
107.0
 40
107.0
 40
107.0
 40
108.0
 40
108.0
 40
108.0
 40
109.0
 40
109.0
 40
109.0
 40
110.0
 40
110.0
 40
110.0
 40
111.0
 40
111.0
 40
111.0
 40
112.0
 40
112.0
 40
112.0
 40
113.0
 40
113.0
 40
113.0
 40
114.0
 40
114.0
 40
114.0
 40
115.0
 40
115.0
 40
115.0
 40
116.0
 40
116.0
 40
116.0
 40
117.0
 40
117.0
 40
117.0
 40
118.0
 40
118.0
 40
118.0
 40
119.0
 40
119.0
 40
119.0
 40
120.0
 40
120.0
 40
120.0
 40
121.0
 40
121.0
 40
121.0
 40
122.0
 40
122.0
 40
122.0
 40
123.0
 40
123.0
 40
123.0
 40
124.0
 40
124.0
 40
124.0
 40
125.0
 40
125.0
 40
125.0
 40
126.0
 40
126.0
 40
126.0
 40
127.0
 40
127.0
 40
127.0
 40
128.0
 40
128.0
 40
128.0
 40
129.0
 40
129.0
 40
129.0
 40
130.0
 40
130.0
 40
130.0
 40
131.0
 40
131.0
 40
131.0
 40
132.0
 40
132.0
 40
132.0
 40
133.0
 40
133.0
 40
133.0
 40
134.0
 40
134.0
 40
134.0
 40
134.0
 10
97.0776410725146
 20
193.6019679469051
 30
0.0
 10
97.0776410725146
 20
193.6019679469051
 30
0.0
 10
96.7505384408644
 20
193.3404449859094
 30
0.0
 10
96.7505384408644
 20
193.3404449859094
 30
0.0
 10
96.7505384408644
 20
193.3404449859094
 30
0.0
 10
97.1235025735334
 20
193.1313567371666
 30
0.0
 10
97.1235025735334
 20
193.1313567371666
 30
0.0
 10
97.1235025735334
 20
193.1313567371666
 30
0.0
 10
96.79288201844416
 20
192.8695702851541
 30
0.0
 10
96.79288201844416
 20
192.8695702851541
 30
0.0
 10
96.79288201844416
 20
192.8695702851541
 30
0.0
 10
97.16610964164103
 20
192.6569641134058
 30
0.0
 10
97.16610964164103
 20
192.6569641134058
 30
0.0
 10
97.16610964164103
 20
192.6569641134058
 30
0.0
 10
96.83900700999084
 20
192.3954411524097
 30
0.0
 10
96.83900700999084
 20
192.3954411524097
 30
0.0
 10
96.83900700999084
 20
192.3954411524097
 30
0.0
 10
97.21197114265983
 20
192.1863529036667
 30
0.0
 10
97.21197114265983
 20
192.1863529036667
 30
0.0
 10
97.21197114265983
 20
192.1863529036667
 30
0.0
 10
96.88135058757125
 20
191.9245664516541
 30
0.0
 10
96.88135058757125
 20
191.9245664516541
 30
0.0
 10
96.88135058757125
 20
191.9245664516541
 30
0.0
 10
97.25431472023959
 20
191.7154782029117
 30
0.0
 10
97.25431472023959
 20
191.7154782029117
 30
0.0
 10
97.25431472023959
 20
191.7154782029117
 30
0.0
 10
96.92747557911792
 20
191.4504373189098
 30
0.0
 10
96.92747557911792
 20
191.4504373189098
 30
0.0
 10
96.92747557911792
 20
191.4504373189098
 30
0.0
 10
97.30043971178627
 20
191.2413490701667
 30
0.0
 10
97.30043971178627
 20
191.2413490701667
 30
0.0
 10
97.30043971178627
 20
191.2413490701667
 30
0.0
 10
96.96981915669768
 20
190.9795626181548
 30
0.0
 10
96.96981915669768
 20
190.9795626181548
 30
0.0
 10
96.96981915669768
 20
190.9795626181548
 30
0.0
 10
97.34278328936603
 20
190.770474369412
 30
0.0
 10
97.34278328936603
 20
190.770474369412
 30
0.0
 10
97.34278328936603
 20
190.770474369412
 30
0.0
 10
97.01568065771647
 20
190.5089514084157
 30
0.0
 10
97.01568065771647
 20
190.5089514084157
 30
0.0
 10
97.01568065771647
 20
190.5089514084157
 30
0.0
 10
97.3889082809127
 20
190.296345236667
 30
0.0
 10
97.3889082809127
 20
190.296345236667
 30
0.0
 10
97.3889082809127
 20
190.296345236667
 30
0.0
 10
97.05828772582412
 20
190.0345587846548
 30
0.0
 10
97.05828772582412
 20
190.0345587846548
 30
0.0
 10
97.05828772582412
 20
190.0345587846548
 30
0.0
 10
97.43476978193151
 20
189.8257340269283
 30
0.0
 10
97.43476978193151
 20
189.8257340269283
 30
0.0
 10
97.43476978193151
 20
189.8257340269283
 30
0.0
 10
97.1041492268429
 20
189.563947574916
 30
0.0
 10
97.1041492268429
 20
189.563947574916
 30
0.0
 10
97.1041492268429
 20
189.563947574916
 30
0.0
 10
97.47737685003914
 20
189.3513414031674
 30
0.0
 10
97.47737685003914
 20
189.3513414031674
 30
0.0
 10
97.47737685003914
 20
189.3513414031674
 30
0.0
 10
97.14675629495055
 20
189.0895549511548
 30
0.0
 10
97.14675629495055
 20
189.0895549511548
 30
0.0
 10
97.14675629495055
 20
189.0895549511548
 30
0.0
 10
97.52323835105794
 20
188.8807301934283
 30
0.0
 10
97.52323835105794
 20
188.8807301934283
 30
0.0
 10
97.52323835105794
 20
188.8807301934283
 30
0.0
 10
97.19261779596935
 20
188.618943741416
 30
0.0
 10
97.19261779596935
 20
188.618943741416
 30
0.0
 10
97.19261779596935
 20
188.618943741416
 30
0.0
 10
97.56558192863834
 20
188.4098554926733
 30
0.0
 10
97.56558192863834
 20
188.4098554926733
 30
0.0
 10
97.56558192863834
 20
188.4098554926733
 30
0.0
 10
97.23522486407698
 20
188.1445511176552
 30
0.0
 10
97.23522486407698
 20
188.1445511176552
 30
0.0
 10
97.23522486407698
 20
188.1445511176552
 30
0.0
 10
97.61170692018437
 20
187.9357263599293
 30
0.0
 10
97.61170692018437
 20
187.9357263599293
 30
0.0
 10
97.61170692018437
 20
187.9357263599293
 30
0.0
 10
97.28108636509643
 20
187.6739399079164
 30
0.0
 10
97.28108636509643
 20
187.6739399079164
 30
0.0
 10
97.28108636509643
 20
187.6739399079164
 30
0.0
 10
97.65405049776477
 20
187.4648516591733
 30
0.0
 10
97.65405049776477
 20
187.4648516591733
 30
0.0
 10
97.65405049776477
 20
187.4648516591733
 30
0.0
 10
97.32721135664247
 20
187.1998107751717
 30
0.0
 10
97.32721135664247
 20
187.1998107751717
 30
0.0
 10
97.32721135664247
 20
187.1998107751717
 30
0.0
 10
97.70017548931145
 20
186.990722526429
 30
0.0
 10
97.70017548931145
 20
186.990722526429
 30
0.0
 10
97.70017548931145
 20
186.990722526429
 30
0.0
 10
97.36955493422286
 20
186.7289360744164
 30
0.0
 10
97.36955493422286
 20
186.7289360744164
 30
0.0
 10
97.36955493422286
 20
186.7289360744164
 30
0.0
 10
97.7425190668912
 20
186.519847825674
 30
0.0
 10
97.7425190668912
 20
186.519847825674
 30
0.0
 10
97.7425190668912
 20
186.519847825674
 30
0.0
 10
97.41541643524167
 20
186.258324864678
 30
0.0
 10
97.41541643524167
 20
186.258324864678
 30
0.0
 10
97.41541643524167
 20
186.258324864678
 30
0.0
 10
97.78864405843788
 20
186.0457186929293
 30
0.0
 10
97.78864405843788
 20
186.0457186929293
 30
0.0
 10
97.78864405843788
 20
186.0457186929293
 30
0.0
 10
97.4580235033493
 20
185.7839322409168
 30
0.0
 10
97.4580235033493
 20
185.7839322409168
 30
0.0
 10
97.4580235033493
 20
185.7839322409168
 30
0.0
 10
97.83098763601764
 20
185.574843992174
 30
0.0
 10
97.83098763601764
 20
185.574843992174
 30
0.0
 10
97.83098763601764
 20
185.574843992174
 30
0.0
 10
97.5038850043681
 20
185.313321031178
 30
0.0
 10
97.5038850043681
 20
185.313321031178
 30
0.0
 10
97.5038850043681
 20
185.313321031178
 30
0.0
 10
97.87711262756464
 20
185.1007148594294
 30
0.0
 10
97.87711262756464
 20
185.1007148594294
 30
0.0
 10
97.87711262756464
 20
185.1007148594294
 30
0.0
 10
97.54649207247573
 20
184.8389284074171
 30
0.0
 10
97.54649207247573
 20
184.8389284074171
 30
0.0
 10
97.54649207247573
 20
184.8389284074171
 30
0.0
 10
97.91945620514473
 20
184.6298401586744
 30
0.0
 10
97.91945620514473
 20
184.6298401586744
 30
0.0
 10
97.91945620514473
 20
184.6298401586744
 30
0.0
 10
97.59235357349453
 20
184.3683171976784
 30
0.0
 10
97.59235357349453
 20
184.3683171976784
 30
0.0
 10
97.59235357349453
 20
184.3683171976784
 30
0.0
 10
97.96531770616288
 20
184.1592289489353
 30
0.0
 10
97.96531770616288
 20
184.1592289489353
 30
0.0
 10
97.96531770616288
 20
184.1592289489353
 30
0.0
 10
97.63496064160216
 20
183.8939245739172
 30
0.0
 10
97.63496064160216
 20
183.8939245739172
 30
0.0
 10
97.63496064160216
 20
183.8939245739172
 30
0.0
 10
98.00792477427116
 20
183.6848363251744
 30
0.0
 10
98.00792477427116
 20
183.6848363251744
 30
0.0
 10
98.00792477427116
 20
183.6848363251744
 30
0.0
 10
97.68082214262097
 20
183.4233133641784
 30
0.0
 10
97.68082214262097
 20
183.4233133641784
 30
0.0
 10
97.68082214262097
 20
183.4233133641784
 30
0.0
 10
98.05378627528995
 20
183.2142251154357
 30
0.0
 10
98.05378627528995
 20
183.2142251154357
 30
0.0
 10
98.05378627528995
 20
183.2142251154357
 30
0.0
 10
97.72342921072861
 20
182.9489207404175
 30
0.0
 10
97.72342921072861
 20
182.9489207404175
 30
0.0
 10
97.72342921072861
 20
182.9489207404175
 30
0.0
 10
98.09991126683664
 20
182.740095982691
 30
0.0
 10
98.09991126683664
 20
182.740095982691
 30
0.0
 10
98.09991126683664
 20
182.740095982691
 30
0.0
 10
97.7692907117474
 20
182.4783095306784
 30
0.0
 10
97.7692907117474
 20
182.4783095306784
 30
0.0
 10
97.7692907117474
 20
182.4783095306784
 30
0.0
 10
98.1422548444164
 20
182.2692212819357
 30
0.0
 10
98.1422548444164
 20
182.2692212819357
 30
0.0
 10
98.1422548444164
 20
182.2692212819357
 30
0.0
 10
97.8116342893278
 20
182.0074348299234
 30
0.0
 10
97.8116342893278
 20
182.0074348299234
 30
0.0
 10
97.8116342893278
 20
182.0074348299234
 30
0.0
 10
98.18837983596308
 20
181.7950921491913
 30
0.0
 10
98.18837983596308
 20
181.7950921491913
 30
0.0
 10
98.18837983596308
 20
181.7950921491913
 30
0.0
 10
97.85775928087384
 20
181.5333056971788
 30
0.0
 10
97.85775928087384
 20
181.5333056971788
 30
0.0
 10
97.85775928087384
 20
181.5333056971788
 30
0.0
 10
98.23072341354283
 20
181.3242174484363
 30
0.0
 10
98.23072341354283
 20
181.3242174484363
 30
0.0
 10
98.23072341354283
 20
181.3242174484363
 30
0.0
 10
97.90010285845425
 20
181.0624309964235
 30
0.0
 10
97.90010285845425
 20
181.0624309964235
 30
0.0
 10
97.90010285845425
 20
181.0624309964235
 30
0.0
 10
98.27658491456162
 20
180.8536062386972
 30
0.0
 10
98.27658491456162
 20
180.8536062386972
 30
0.0
 10
98.27658491456162
 20
180.8536062386972
 30
0.0
 10
97.94622785000028
 20
180.5883018636788
 30
0.0
 10
97.94622785000028
 20
180.5883018636788
 30
0.0
 10
97.94622785000028
 20
180.5883018636788
 30
0.0
 10
98.31919198266927
 20
180.3792136149364
 30
0.0
 10
98.31919198266927
 20
180.3792136149364
 30
0.0
 10
98.31919198266927
 20
180.3792136149364
 30
0.0
 10
97.99208935101971
 20
180.11769065394
 30
0.0
 10
97.99208935101971
 20
180.11769065394
 30
0.0
 10
97.99208935101971
 20
180.11769065394
 30
0.0
 10
98.36505348368806
 20
179.9086024051973
 30
0.0
 10
98.36505348368806
 20
179.9086024051973
 30
0.0
 10
98.36505348368806
 20
179.9086024051973
 30
0.0
 10
98.03469641912736
 20
179.6432980301792
 30
0.0
 10
98.03469641912736
 20
179.6432980301792
 30
0.0
 10
98.03469641912736
 20
179.6432980301792
 30
0.0
 10
98.4076605517957
 20
179.4342097814364
 30
0.0
 10
98.4076605517957
 20
179.4342097814364
 30
0.0
 10
98.4076605517957
 20
179.4342097814364
 30
0.0
 10
98.08055792014648
 20
179.1726868204404
 30
0.0
 10
98.08055792014648
 20
179.1726868204404
 30
0.0
 10
98.08055792014648
 20
179.1726868204404
 30
0.0
 10
98.45352205281515
 20
178.9635985716976
 30
0.0
 10
98.45352205281515
 20
178.9635985716976
 30
0.0
 10
98.45352205281515
 20
178.9635985716976
 30
0.0
 10
98.12641942116495
 20
178.7020756107016
 30
0.0
 10
98.12668291169284
 20
178.6985576876957
 30
0.0
 10
98.12668291169284
 20
178.6985576876957
 30
0.0
 10
98.8039120487886
 20
178.1584929286564
 30
0.0
 10
100.1788931322985
 20
178.2685537620606
 30
0.0
 10
101.8345960166973
 20
178.3147367425981
 30
0.0
 10
102.1150466757457
 20
179.0574246823506
 30
0.0
 10
102.1150466757457
 20
179.0574246823506
 30
0.0
 10
102.1150466757457
 20
179.0574246823506
 30
0.0
 10
101.7456004665158
 20
179.2667764221096
 30
0.0
 10
101.7456004665158
 20
179.2667764221096
 30
0.0
 10
101.7456004665158
 20
179.2667764221096
 30
0.0
 10
102.0797389450434
 20
179.5288263651383
 30
0.0
 10
102.0797389450434
 20
179.5288263651383
 30
0.0
 10
102.0797389450434
 20
179.5288263651383
 30
0.0
 10
101.7102927358128
 20
179.7381781048973
 30
0.0
 10
101.7102927358128
 20
179.7381781048973
 30
0.0
 10
101.7102927358128
 20
179.7381781048973
 30
0.0
 10
102.0444312143404
 20
180.000228047926
 30
0.0
 10
102.0444312143404
 20
180.000228047926
 30
0.0
 10
102.0444312143404
 20
180.000228047926
 30
0.0
 10
101.6787664190774
 20
180.206325355696
 30
0.0
 10
101.6787664190774
 20
180.206325355696
 30
0.0
 10
101.6787664190774
 20
180.206325355696
 30
0.0
 10
102.0129048976044
 20
180.4683752987244
 30
0.0
 10
102.0129048976044
 20
180.4683752987244
 30
0.0
 10
102.0129048976044
 20
180.4683752987244
 30
0.0
 10
101.6434586883745
 20
180.6777270384837
 30
0.0
 10
101.6434586883745
 20
180.6777270384837
 30
0.0
 10
101.6434586883745
 20
180.6777270384837
 30
0.0
 10
101.9775971669021
 20
180.9397769815121
 30
0.0
 10
101.9775971669021
 20
180.9397769815121
 30
0.0
 10
101.9775971669021
 20
180.9397769815121
 30
0.0
 10
101.6084144482001
 20
181.1456107982658
 30
0.0
 10
101.6084144482001
 20
181.1456107982658
 30
0.0
 10
101.6084144482001
 20
181.1456107982658
 30
0.0
 10
101.942552926727
 20
181.4076607412943
 30
0.0
 10
101.942552926727
 20
181.4076607412943
 30
0.0
 10
101.942552926727
 20
181.4076607412943
 30
0.0
 10
101.5731067174977
 20
181.6170124810536
 30
0.0
 10
101.5731067174977
 20
181.6170124810536
 30
0.0
 10
101.5731067174977
 20
181.6170124810536
 30
0.0
 10
101.9072451960247
 20
181.879062424082
 30
0.0
 10
101.9072451960247
 20
181.879062424082
 30
0.0
 10
101.9072451960247
 20
181.879062424082
 30
0.0
 10
101.5377989867948
 20
182.0884141638413
 30
0.0
 10
101.5377989867948
 20
182.0884141638413
 30
0.0
 10
101.5377989867948
 20
182.0884141638413
 30
0.0
 10
101.8757188792887
 20
182.3472096748804
 30
0.0
 10
101.8757188792887
 20
182.3472096748804
 30
0.0
 10
101.8757188792887
 20
182.3472096748804
 30
0.0
 10
101.5062726700588
 20
182.5565614146393
 30
0.0
 10
101.5062726700588
 20
182.5565614146393
 30
0.0
 10
101.5062726700588
 20
182.5565614146393
 30
0.0
 10
101.8404111485858
 20
182.8186113576684
 30
0.0
 10
101.8404111485858
 20
182.8186113576684
 30
0.0
 10
101.8404111485858
 20
182.8186113576684
 30
0.0
 10
101.4709649393564
 20
183.0279630974274
 30
0.0
 10
101.4709649393564
 20
183.0279630974274
 30
0.0
 10
101.4709649393564
 20
183.0279630974274
 30
0.0
 10
101.8051034178838
 20
183.2900130404561
 30
0.0
 10
101.8051034178838
 20
183.2900130404561
 30
0.0
 10
101.8051034178838
 20
183.2900130404561
 30
0.0
 10
101.4359206991814
 20
183.4958468572092
 30
0.0
 10
101.4359206991814
 20
183.4958468572092
 30
0.0
 10
101.4359206991814
 20
183.4958468572092
 30
0.0
 10
101.770059177709
 20
183.757896800238
 30
0.0
 10
101.770059177709
 20
183.757896800238
 30
0.0
 10
101.770059177709
 20
183.757896800238
 30
0.0
 10
101.4006129684791
 20
183.9672485399969
 30
0.0
 10
101.4006129684791
 20
183.9672485399969
 30
0.0
 10
101.4006129684791
 20
183.9672485399969
 30
0.0
 10
101.7347514470061
 20
184.229298483026
 30
0.0
 10
101.7347514470061
 20
184.229298483026
 30
0.0
 10
101.7347514470061
 20
184.229298483026
 30
0.0
 10
101.365568728304
 20
184.4351322997791
 30
0.0
 10
101.365568728304
 20
184.4351322997791
 30
0.0
 10
101.365568728304
 20
184.4351322997791
 30
0.0
 10
101.7032251302707
 20
184.6974457338241
 30
0.0
 10
101.7032251302707
 20
184.6974457338241
 30
0.0
 10
101.7032251302707
 20
184.6974457338241
 30
0.0
 10
101.3337789210407
 20
184.9067974735833
 30
0.0
 10
101.3337789210407
 20
184.9067974735833
 30
0.0
 10
101.3337789210407
 20
184.9067974735833
 30
0.0
 10
101.6679173995677
 20
185.1688474166118
 30
0.0
 10
101.6679173995677
 20
185.1688474166118
 30
0.0
 10
101.6679173995677
 20
185.1688474166118
 30
0.0
 10
101.2984711903378
 20
185.3781991563714
 30
0.0
 10
101.2984711903378
 20
185.3781991563714
 30
0.0
 10
101.2984711903378
 20
185.3781991563714
 30
0.0
 10
101.6328731593933
 20
185.6367311763939
 30
0.0
 10
101.6328731593933
 20
185.6367311763939
 30
0.0
 10
101.6328731593933
 20
185.6367311763939
 30
0.0
 10
101.2634269501633
 20
185.8460829161532
 30
0.0
 10
101.2634269501633
 20
185.8460829161532
 30
0.0
 10
101.2634269501633
 20
185.8460829161532
 30
0.0
 10
101.5975654286903
 20
186.1081328591816
 30
0.0
 10
101.5975654286903
 20
186.1081328591816
 30
0.0
 10
101.5975654286903
 20
186.1081328591816
 30
0.0
 10
101.2281192194604
 20
186.3174845989409
 30
0.0
 10
101.2281192194604
 20
186.3174845989409
 30
0.0
 10
101.2281192194604
 20
186.3174845989409
 30
0.0
 10
101.5625211885159
 20
186.5760166189635
 30
0.0
 10
101.5625211885159
 20
186.5760166189635
 30
0.0
 10
101.5625211885159
 20
186.5760166189635
 30
0.0
 10
101.193074979286
 20
186.7853683587231
 30
0.0
 10
101.193074979286
 20
186.7853683587231
 30
0.0
 10
101.193074979286
 20
186.7853683587231
 30
0.0
 10
101.530731381252
 20
187.0476817927681
 30
0.0
 10
101.530731381252
 20
187.0476817927681
 30
0.0
 10
101.530731381252
 20
187.0476817927681
 30
0.0
 10
101.1612851720221
 20
187.2570335325267
 30
0.0
 10
101.1612851720221
 20
187.2570335325267
 30
0.0
 10
101.1612851720221
 20
187.2570335325267
 30
0.0
 10
101.4954236505497
 20
187.5190834755558
 30
0.0
 10
101.4954236505497
 20
187.5190834755558
 30
0.0
 10
101.4954236505497
 20
187.5190834755558
 30
0.0
 10
101.126240931847
 20
187.7249172923088
 30
0.0
 10
101.126240931847
 20
187.7249172923088
 30
0.0
 10
101.126240931847
 20
187.7249172923088
 30
0.0
 10
101.4603794103746
 20
187.9869672353383
 30
0.0
 10
101.4603794103746
 20
187.9869672353383
 30
0.0
 10
101.4603794103746
 20
187.9869672353383
 30
0.0
 10
101.0909332011447
 20
188.1963189750969
 30
0.0
 10
101.0909332011447
 20
188.1963189750969
 30
0.0
 10
101.0909332011447
 20
188.1963189750969
 30
0.0
 10
101.4250716796723
 20
188.4583689181253
 30
0.0
 10
101.4250716796723
 20
188.4583689181253
 30
0.0
 10
101.4250716796723
 20
188.4583689181253
 30
0.0
 10
101.0556254704424
 20
188.6677206578846
 30
0.0
 10
101.0556254704424
 20
188.6677206578846
 30
0.0
 10
101.0556254704424
 20
188.6677206578846
 30
0.0
 10
101.3900274394972
 20
188.9262526779075
 30
0.0
 10
101.3900274394972
 20
188.9262526779075
 30
0.0
 10
101.3900274394972
 20
188.9262526779075
 30
0.0
 10
101.0205812302676
 20
189.1356044176664
 30
0.0
 10
101.0205812302676
 20
189.1356044176664
 30
0.0
 10
101.0205812302676
 20
189.1356044176664
 30
0.0
 10
101.3582376322333
 20
189.3979178517118
 30
0.0
 10
101.3582376322333
 20
189.3979178517118
 30
0.0
 10
101.3582376322333
 20
189.3979178517118
 30
0.0
 10
100.9887914230034
 20
189.6072695914707
 30
0.0
 10
100.9887914230034
 20
189.6072695914707
 30
0.0
 10
100.9887914230034
 20
189.6072695914707
 30
0.0
 10
101.3231933920589
 20
189.8658016114936
 30
0.0
 10
101.3231933920589
 20
189.8658016114936
 30
0.0
 10
101.3231933920589
 20
189.8658016114936
 30
0.0
 10
100.953747182829
 20
190.0751533512525
 30
0.0
 10
100.953747182829
 20
190.0751533512525
 30
0.0
 10
100.953747182829
 20
190.0751533512525
 30
0.0
 10
101.287885661356
 20
190.3372032942813
 30
0.0
 10
101.287885661356
 20
190.3372032942813
 30
0.0
 10
101.287885661356
 20
190.3372032942813
 30
0.0
 10
100.918439452126
 20
190.5465550340402
 30
0.0
 10
100.918439452126
 20
190.5465550340402
 30
0.0
 10
100.918439452126
 20
190.5465550340402
 30
0.0
 10
101.2525779306536
 20
190.8086049770693
 30
0.0
 10
101.2525779306536
 20
190.8086049770693
 30
0.0
 10
101.2525779306536
 20
190.8086049770693
 30
0.0
 10
100.8833952119516
 20
191.014438793823
 30
0.0
 10
100.8833952119516
 20
191.014438793823
 30
0.0
 10
100.8833952119516
 20
191.014438793823
 30
0.0
 10
101.2175336904786
 20
191.2764887368512
 30
0.0
 10
101.2175336904786
 20
191.2764887368512
 30
0.0
 10
101.2175336904786
 20
191.2764887368512
 30
0.0
 10
100.8480874812486
 20
191.4858404766108
 30
0.0
 10
100.8480874812486
 20
191.4858404766108
 30
0.0
 10
100.8480874812486
 20
191.4858404766108
 30
0.0
 10
101.1857438832153
 20
191.7481539106551
 30
0.0
 10
101.1857438832153
 20
191.7481539106551
 30
0.0
 10
101.1857438832153
 20
191.7481539106551
 30
0.0
 10
100.8162976739854
 20
191.9575056504147
 30
0.0
 10
100.8162976739854
 20
191.9575056504147
 30
0.0
 10
100.8162976739854
 20
191.9575056504147
 30
0.0
 10
101.1506996430402
 20
192.2160376704376
 30
0.0
 10
101.1506996430402
 20
192.2160376704376
 30
0.0
 10
101.1506996430402
 20
192.2160376704376
 30
0.0
 10
100.7812534338103
 20
192.4253894101965
 30
0.0
 10
100.7812534338103
 20
192.4253894101965
 30
0.0
 10
100.7812534338103
 20
192.4253894101965
 30
0.0
 10
101.1153919123379
 20
192.6874393532253
 30
0.0
 10
101.1153919123379
 20
192.6874393532253
 30
0.0
 10
101.1153919123379
 20
192.6874393532253
 30
0.0
 10
100.745945703108
 20
192.8967910929842
 30
0.0
 10
100.745945703108
 20
192.8967910929842
 30
0.0
 10
100.745945703108
 20
192.8967910929842
 30
0.0
 10
101.0803476721629
 20
193.1553231130075
 30
0.0
 10
101.0803476721629
 20
193.1553231130075
 30
0.0
 10
101.0803476721629
 20
193.1553231130075
 30
0.0
 10
100.7109014629329
 20
193.3646748527664
 30
0.0
 10
100.7109014629329
 20
193.3646748527664
 30
0.0
 10
100.7109014629329
 20
193.3646748527664
 30
0.0
 10
101.048557864899
 20
193.6269882868114
 30
0.0
 10
101.048557864899
 20
193.6269882868114
 30
0.0
 10
101.048557864899
 20
193.6269882868114
 30
0.0
 10
100.67911165567
 20
193.8363400265703
 30
0.0
 10
100.67911165567
 20
193.8363400265703
 30
0.0
 10
100.67911165567
 20
193.8363400265703
 30
0.0
 10
100.887395361983
 20
194.078350523993
 30
0.0
 10
100.887395361983
 20
194.078350523993
 30
0.0
 10
100.887395361983
 20
194.078350523993
 30
0.0
 10
100.7308831419852
 20
194.4203936569762
 30
0.0
 10
100.7308831419852
 20
194.4203936569762
 30
0.0
 10
100.7308831419852
 20
194.4203936569762
 30
0.0
 10
100.8037621689337
 20
195.0060282334797
 30
0.0
 10
98.74552761592754
 20
194.9969113052064
 30
0.0
 10
96.8012624629681
 20
194.8831255712352
 30
0.0
 10
96.87286763832638
 20
194.1632688101117
 30
0.0
 10
96.87286763832638
 20
194.1632688101117
 30
0.0
 10
96.87286763832638
 20
194.1632688101117
 30
0.0
 10
96.77037097649226
 20
193.7841377268894
 30
0.0
 10
96.77037097649226
 20
193.7841377268894
 30
0.0
 10
96.77037097649226
 20
193.7841377268894
 30
0.0
 10
97.0776410725146
 20
193.6019679469051
 30
0.0
 10
97.0776410725146
 20
193.6019679469051
 30
0.0
  0
ENDBLK
  5
94
330
91
100
AcDbEntity
  8
0
100
AcDbBlockEnd
  0
BLOCK
  5
B9
330
B7
100
AcDbEntity
  8
0
100
AcDbBlockBegin
  2
block 5
 70
     0
 10
0.0
 20
0.0
 30
0.0
  3
block 5
  1

  0
INSERT
  5
BC
330
B7
100
AcDbEntity
  8
_U+56FE_U+5C42 1
100
AcDbBlockReference
  2
block 6
 10
0.0
 20
0.0
 30
0.0
  0
POLYLINE
  5
C3
330
B7
100
AcDbEntity
  8
_U+56FE_U+5C42 1
370
     0
100
AcDb2dPolyline
 66
     1
 10
0.0
 20
0.0
 30
0.0
  0
VERTEX
  5
C4
330
C3
100
AcDbEntity
  8
_U+56FE_U+5C42 1
370
     0
100
AcDbVertex
100
AcDb2dVertex
 10
119.7541760240822
 20
161.4428805623904
 30
0.0
  0
VERTEX
  5
C5
330
C3
100
AcDbEntity
  8
_U+56FE_U+5C42 1
370
     0
100
AcDbVertex
100
AcDb2dVertex
 10
119.0768667956848
 20
162.051555301563
 30
0.0
  0
VERTEX
  5
C6
330
C3
100
AcDbEntity
  8
_U+56FE_U+5C42 1
370
     0
100
AcDbVertex
100
AcDb2dVertex
 10
115.8196812962092
 20
158.4281026756103
 30
0.0
  0
VERTEX
  5
C7
330
C3
100
AcDbEntity
  8
_U+56FE_U+5C42 1
370
     0
100
AcDbVertex
100
AcDb2dVertex
 10
116.4971187983593
 20
157.8190718377539
 30
0.0
  0
VERTEX
  5
C8
330
C3
100
AcDbEntity
  8
_U+56FE_U+5C42 1
370
     0
100
AcDbVertex
100
AcDb2dVertex
 10
119.7541760240822
 20
161.4428805623904
 30
0.0
  0
SEQEND
  5
CA
330
C3
100
AcDbEntity
  8
_U+56FE_U+5C42 1
370
     0
  0
HATCH
  5
C9
330
B7
100
AcDbEntity
  8
_U+56FE_U+5C42 1
 62
   253
420
 10066329
100
AcDbHatch
 10
0.0
 20
0.0
 30
0.0
210
0.0
220
0.0
230
1.0
  2
SOLID
 70
     1
 71
     0
 91
        1
 92
        1
 93
        4
 72
     1
 10
119.7541760240822
 20
161.4428805623904
 11
119.0768667956848
 21
162.051555301563
 72
     1
 10
119.0768667956848
 20
162.051555301563
 11
115.8196812962092
 21
158.4281026756103
 72
     1
 10
115.8196812962092
 20
158.4281026756103
 11
116.4971187983593
 21
157.8190718377539
 72
     1
 10
116.4971187983593
 20
157.8190718377539
 11
119.7541760240822
 21
161.4428805623904
 97
        0
 75
     2
 76
     1
 98
        0
  0
POLYLINE
  5
CB
330
B7
100
AcDbEntity
  8
_U+56FE_U+5C42 1
370
     0
100
AcDb2dPolyline
 66
     1
 10
0.0
 20
0.0
 30
0.0
  0
VERTEX
  5
CC
330
CB
100
AcDbEntity
  8
_U+56FE_U+5C42 1
370
     0
100
AcDbVertex
100
AcDb2dVertex
 10
120.9201428467464
 20
160.3946605584723
 30
0.0
  0
VERTEX
  5
CD
330
CB
100
AcDbEntity
  8
_U+56FE_U+5C42 1
370
     0
100
AcDbVertex
100
AcDb2dVertex
 10
120.1798111817245
 20
161.060033786616
 30
0.0
  0
VERTEX
  5
CE
330
CB
100
AcDbEntity
  8
_U+56FE_U+5C42 1
370
     0
100
AcDbVertex
100
AcDb2dVertex
 10
116.9222778725558
 20
157.4369426603201
 30
0.0
  0
VERTEX
  5
CF
330
CB
100
AcDbEntity
  8
_U+56FE_U+5C42 1
370
     0
100
AcDbVertex
100
AcDb2dVertex
 10
117.6625701767179
 20
156.7715704173031
 30
0.0
  0
VERTEX
  5
D0
330
CB
100
AcDbEntity
  8
_U+56FE_U+5C42 1
370
     0
100
AcDbVertex
100
AcDb2dVertex
 10
120.9201428467464
 20
160.3946605584723
 30
0.0
  0
SEQEND
  5
D2
330
CB
100
AcDbEntity
  8
_U+56FE_U+5C42 1
370
     0
  0
HATCH
  5
D1
330
B7
100
AcDbEntity
  8
_U+56FE_U+5C42 1
 62
   253
420
 10066329
100
AcDbHatch
 10
0.0
 20
0.0
 30
0.0
210
0.0
220
0.0
230
1.0
  2
SOLID
 70
     1
 71
     0
 91
        1
 92
        1
 93
        4
 72
     1
 10
120.9201428467464
 20
160.3946605584723
 11
120.1798111817245
 21
161.060033786616
 72
     1
 10
120.1798111817245
 20
161.060033786616
 11
116.9222778725558
 21
157.4369426603201
 72
     1
 10
116.9222778725558
 20
157.4369426603201
 11
117.6625701767179
 21
156.7715704173031
 72
     1
 10
117.6625701767179
 20
156.7715704173031
 11
120.9201428467464
 21
160.3946605584723
 97
        0
 75
     2
 76
     1
 98
        0
  0
ENDBLK
  5
BA
330
B7
100
AcDbEntity
  8
0
100
AcDbBlockEnd
  0
BLOCK
  5
BD
330
BB
100
AcDbEntity
  8
0
100
AcDbBlockBegin
  2
block 6
 70
     0
 10
0.0
 20
0.0
 30
0.0
  3
block 6
  1

  0
POLYLINE
  5
BF
330
BB
100
AcDbEntity
  8
_U+56FE_U+5C42 1
 62
   253
420
 10066329
370
   106
100
AcDb2dPolyline
 66
     1
 10
0.0
 20
0.0
 30
0.0
  0
VERTEX
  5
C0
330
BF
100
AcDbEntity
  8
_U+56FE_U+5C42 1
 62
   253
420
 10066329
370
   106
100
AcDbVertex
100
AcDb2dVertex
 10
117.4186933624982
 20
162.2353759907612
 30
0.0
  0
VERTEX
  5
C1
330
BF
100
AcDbEntity
  8
_U+56FE_U+5C42 1
 62
   253
420
 10066329
370
   106
100
AcDbVertex
100
AcDb2dVertex
 10
119.2196683176211
 20
156.6522847457838
 30
0.0
  0
SEQEND
  5
C2
330
BF
100
AcDbEntity
  8
_U+56FE_U+5C42 1
 62
   253
420
 10066329
370
   106
  0
ENDBLK
  5
BE
330
BB
100
AcDbEntity
  8
0
100
AcDbBlockEnd
  0
BLOCK
  5
D9
330
D7
100
AcDbEntity
  8
0
100
AcDbBlockBegin
  2
block 7
 70
     0
 10
0.0
 20
0.0
 30
0.0
  3
block 7
  1

  0
SPLINE
  5
DB
330
D7
100
AcDbEntity
  8
callouit
 62
     7
420
 16777215
370
    25
100
AcDbSpline
210
0.0
220
0.0
230
1.0
 70
     8
 71
     3
 72
     8
 73
     4
 74
     0
 42
0.0000000001
 43
0.0000000001
 12
1.0
 22
0.0
 32
0.0
 13
1.0
 23
0.0
 33
0.0
 40
0.0
 40
0.0
 40
0.0
 40
0.0
 40
1.0
 40
1.0
 40
1.0
 40
1.0
 10
67.6372660510393
 20
186.8872007537656
 30
0.0
 10
71.1083665068923
 20
185.7491291357774
 30
0.0
 10
79.13225684710962
 20
181.8793979703809
 30
0.0
 10
86.52997407024216
 20
175.2784387539272
 30
0.0
  0
POLYLINE
  5
DC
330
D7
100
AcDbEntity
  8
callouit
370
     0
100
AcDb2dPolyline
 66
     1
 10
0.0
 20
0.0
 30
0.0
  0
VERTEX
  5
DD
330
DC
100
AcDbEntity
  8
callouit
370
     0
100
AcDbVertex
100
AcDb2dVertex
 10
85.93227971213068
 20
174.7664683369628
 30
0.0
  0
VERTEX
  5
DE
330
DC
100
AcDbEntity
  8
callouit
370
     0
100
AcDbVertex
100
AcDb2dVertex
 10
86.87128768155156
 20
175.8192475101531
 30
0.0
  0
VERTEX
  5
DF
330
DC
100
AcDbEntity
  8
callouit
370
     0
100
AcDbVertex
100
AcDb2dVertex
 10
87.86682167256744
 20
174.0550027750813
 30
0.0
  0
VERTEX
  5
E0
330
DC
100
AcDbEntity
  8
callouit
370
     0
100
AcDbVertex
100
AcDb2dVertex
 10
85.93227971213068
 20
174.7664683369628
 30
0.0
  0
SEQEND
  5
E2
330
DC
100
AcDbEntity
  8
callouit
370
     0
  0
HATCH
  5
E1
330
D7
100
AcDbEntity
  8
callouit
 62
     7
420
 16777215
100
AcDbHatch
 10
0.0
 20
0.0
 30
0.0
210
0.0
220
0.0
230
1.0
  2
SOLID
 70
     1
 71
     0
 91
        1
 92
        1
 93
        3
 72
     1
 10
85.93227971213068
 20
174.7664683369628
 11
86.87128768155156
 21
175.8192475101531
 72
     1
 10
86.87128768155156
 20
175.8192475101531
 11
87.86682167256744
 21
174.0550027750813
 72
     1
 10
87.86682167256744
 20
174.0550027750813
 11
85.93227971213068
 21
174.7664683369628
 97
        0
 75
     2
 76
     1
 98
        0
  0
ENDBLK
  5
DA
330
D7
100
AcDbEntity
  8
0
100
AcDbBlockEnd
  0
BLOCK
  5
E6
330
E4
100
AcDbEntity
  8
0
100
AcDbBlockBegin
  2
block 8
 70
     0
 10
0.0
 20
0.0
 30
0.0
  3
block 8
  1

  0
SPLINE
  5
E8
330
E4
100
AcDbEntity
  8
callouit
 62
     7
420
 16777215
370
    25
100
AcDbSpline
210
0.0
220
0.0
230
1.0
 70
     8
 71
     3
 72
     8
 73
     4
 74
     0
 42
0.0000000001
 43
0.0000000001
 12
1.0
 22
0.0
 32
0.0
 13
1.0
 23
0.0
 33
0.0
 40
0.0
 40
0.0
 40
0.0
 40
0.0
 40
1.0
 40
1.0
 40
1.0
 40
1.0
 10
144.3644979781273
 20
162.051555301563
 30
0.0
 10
141.6345877782116
 20
159.4438303682725
 30
0.0
 10
141.6345877782116
 20
159.4438303682725
 30
0.0
 10
136.2616584665047
 20
153.6352876736669
 30
0.0
  0
POLYLINE
  5
E9
330
E4
100
AcDbEntity
  8
callouit
370
     0
100
AcDb2dPolyline
 66
     1
 10
0.0
 20
0.0
 30
0.0
  0
VERTEX
  5
EA
330
E9
100
AcDbEntity
  8
callouit
370
     0
100
AcDbVertex
100
AcDb2dVertex
 10
136.66797203754
 20
153.1233172567025
 30
0.0
  0
VERTEX
  5
EB
330
E9
100
AcDbEntity
  8
callouit
370
     0
100
AcDbVertex
100
AcDb2dVertex
 10
136.0296329330994
 20
154.1760964298928
 30
0.0
  0
VERTEX
  5
EC
330
E9
100
AcDbEntity
  8
callouit
370
     0
100
AcDbVertex
100
AcDb2dVertex
 10
135.3528673496751
 20
152.411851694821
 30
0.0
  0
VERTEX
  5
ED
330
E9
100
AcDbEntity
  8
callouit
370
     0
100
AcDbVertex
100
AcDb2dVertex
 10
136.66797203754
 20
153.1233172567025
 30
0.0
  0
SEQEND
  5
EF
330
E9
100
AcDbEntity
  8
callouit
370
     0
  0
HATCH
  5
EE
330
E4
100
AcDbEntity
  8
callouit
 62
     7
420
 16777215
100
AcDbHatch
 10
0.0
 20
0.0
 30
0.0
210
0.0
220
0.0
230
1.0
  2
SOLID
 70
     1
 71
     0
 91
        1
 92
        1
 93
        3
 72
     1
 10
136.66797203754
 20
153.1233172567025
 11
136.0296329330994
 21
154.1760964298928
 72
     1
 10
136.0296329330994
 20
154.1760964298928
 11
135.3528673496751
 21
152.411851694821
 72
     1
 10
135.3528673496751
 20
152.411851694821
 11
136.66797203754
 21
153.1233172567025
 97
        0
 75
     2
 76
     1
 98
        0
  0
ENDBLK
  5
E7
330
E4
100
AcDbEntity
  8
0
100
AcDbBlockEnd
  0
ENDSEC
  0
SECTION
  2
ENTITIES
  0
SPLINE
  5
41
330
1F
100
AcDbEntity
  8
_U+56FE_U+5C42 1
 62
     7
420
 16777215
370
     9
100
AcDbSpline
210
0.0
220
0.0
230
1.0
 70
    11
 71
     3
 72
    74
 73
    70
 74
     0
 42
0.0000000001
 43
0.0000000001
 12
1.0
 22
0.0
 32
0.0
 13
1.0
 23
0.0
 33
0.0
 40
0.0
 40
0.0
 40
0.0
 40
0.0
 40
1.0
 40
1.0
 40
1.0
 40
2.0
 40
2.0
 40
2.0
 40
3.0
 40
3.0
 40
3.0
 40
4.0
 40
4.0
 40
4.0
 40
5.0
 40
5.0
 40
5.0
 40
6.0
 40
6.0
 40
6.0
 40
7.0
 40
7.0
 40
7.0
 40
8.0
 40
8.0
 40
8.0
 40
9.0
 40
9.0
 40
9.0
 40
10.0
 40
10.0
 40
10.0
 40
11.0
 40
11.0
 40
11.0
 40
12.0
 40
12.0
 40
12.0
 40
13.0
 40
13.0
 40
13.0
 40
14.0
 40
14.0
 40
14.0
 40
15.0
 40
15.0
 40
15.0
 40
16.0
 40
16.0
 40
16.0
 40
17.0
 40
17.0
 40
17.0
 40
18.0
 40
18.0
 40
18.0
 40
19.0
 40
19.0
 40
19.0
 40
20.0
 40
20.0
 40
20.0
 40
21.0
 40
21.0
 40
21.0
 40
22.0
 40
22.0
 40
22.0
 40
23.0
 40
23.0
 40
23.0
 40
23.0
 10
24.9747461071938
 20
142.8622862715736
 30
0.0
 10
24.9747461071938
 20
142.8622862715736
 30
0.0
 10
25.40805141995219
 20
142.4954478223394
 30
0.0
 10
25.40805141995219
 20
142.4954478223394
 30
0.0
 10
25.40805141995219
 20
142.4954478223394
 30
0.0
 10
39.80415440460039
 20
141.7956948564726
 30
0.0
 10
58.67127285877987
 20
146.5875215590584
 30
0.0
 10
75.95929109233863
 20
150.5504503956025
 30
0.0
 10
91.14674537604718
 20
157.5379005039856
 30
0.0
 10
95.12749280690181
 20
157.9676025022773
 30
0.0
 10
96.3328300945172
 20
158.5546368016
 30
0.0
 10
120.0743380763953
 20
146.407827513331
 30
0.0
 10
121.0735815215076
 20
145.9961556380602
 30
0.0
 10
149.5996434138195
 20
131.9313824998145
 30
0.0
 10
178.7871582085906
 20
123.3511977774103
 30
0.0
 10
179.7306177105496
 20
123.2372770738034
 30
0.0
 10
179.7306177105496
 20
123.2372770738034
 30
0.0
 10
179.5935255910494
 20
123.6663303753243
 30
0.0
 10
179.5935255910494
 20
123.6663303753243
 30
0.0
 10
179.5935255910494
 20
123.6663303753243
 30
0.0
 10
179.7306177105496
 20
123.2372770738034
 30
0.0
 10
179.7306177105496
 20
123.2372770738034
 30
0.0
 10
179.7306177105496
 20
123.2372770738034
 30
0.0
 10
182.7113254757355
 20
127.9370102838437
 30
0.0
 10
182.7113254757355
 20
127.9370102838437
 30
0.0
 10
182.7113254757355
 20
127.9370102838437
 30
0.0
 10
182.6114561674412
 20
128.4078630936555
 30
0.0
 10
182.6114561674412
 20
128.4078630936555
 30
0.0
 10
182.6114561674412
 20
128.4078630936555
 30
0.0
 10
181.0022148060559
 20
129.0942776514017
 30
0.0
 10
181.0022148060559
 20
129.0942776514017
 30
0.0
 10
181.0022148060559
 20
129.0942776514017
 30
0.0
 10
185.615860923482
 20
128.5538943156355
 30
0.0
 10
185.615860923482
 20
128.5538943156355
 30
0.0
 10
185.615860923482
 20
128.5538943156355
 30
0.0
 10
185.8086424856611
 20
128.8485268322022
 30
0.0
 10
185.8086424856611
 20
128.8485268322022
 30
0.0
 10
185.8086424856611
 20
128.8485268322022
 30
0.0
 10
183.9086855203668
 20
129.7548713892539
 30
0.0
 10
183.9086855203668
 20
129.7548713892539
 30
0.0
 10
183.9086855203668
 20
129.7548713892539
 30
0.0
 10
186.285223883004
 20
133.5496013405741
 30
0.0
 10
186.285223883004
 20
133.5496013405741
 30
0.0
 10
186.285223883004
 20
133.5496013405741
 30
0.0
 10
186.1346590130012
 20
133.9434842699372
 30
0.0
 10
186.1346590130012
 20
133.9434842699372
 30
0.0
 10
186.1346590130012
 20
133.9434842699372
 30
0.0
 10
149.6824584186037
 20
139.9282277874696
 30
0.0
 10
149.6824584186037
 20
139.9282277874696
 30
0.0
 10
149.6824584186037
 20
139.9282277874696
 30
0.0
 10
115.1199323283386
 20
157.2025643746227
 30
0.0
 10
115.1199323283386
 20
157.2025643746227
 30
0.0
 10
115.1199323283386
 20
157.2025643746227
 30
0.0
 10
97.71661813868351
 20
160.8730621318922
 30
0.0
 10
97.71661813868351
 20
160.8730621318922
 30
0.0
 10
97.71661813868351
 20
160.8730621318922
 30
0.0
 10
90.19038937887596
 20
159.8631997412108
 30
0.0
 10
90.19038937887596
 20
159.8631997412108
 30
0.0
 10
90.19038937887596
 20
159.8631997412108
 30
0.0
 10
59.58939109673042
 20
149.7701797148722
 30
0.0
 10
59.58939109673042
 20
149.7701797148722
 30
0.0
 10
59.58939109673042
 20
149.7701797148722
 30
0.0
 10
38.05320040947726
 20
147.0156827012345
 30
0.0
 10
38.05320040947726
 20
147.0156827012345
 30
0.0
 10
38.05320040947726
 20
147.0156827012345
 30
0.0
 10
27.52956502106437
 20
144.8381408274605
 30
0.0
 10
27.52956502106437
 20
144.8381408274605
 30
0.0
 10
27.52956502106437
 20
144.8381408274605
 30
0.0
 10
24.9747461071938
 20
142.8622862715736
 30
0.0
 10
24.9747461071938
 20
142.8622862715736
 30
0.0
  0
HATCH
  5
42
330
1F
100
AcDbEntity
  8
_U+56FE_U+5C42 1
 62
   254
420
 13358815
100
AcDbHatch
 10
0.0
 20
0.0
 30
0.0
210
0.0
220
0.0
230
1.0
  2
SOLID
 70
     1
 71
     0
 91
        1
 92
        1
 93
        1
 72
     4
 94
        3
 73
     0
 74
     1
 95
       74
 96
       70
 40
0.0
 40
0.0
 40
0.0
 40
0.0
 40
1.0
 40
1.0
 40
1.0
 40
2.0
 40
2.0
 40
2.0
 40
3.0
 40
3.0
 40
3.0
 40
4.0
 40
4.0
 40
4.0
 40
5.0
 40
5.0
 40
5.0
 40
6.0
 40
6.0
 40
6.0
 40
7.0
 40
7.0
 40
7.0
 40
8.0
 40
8.0
 40
8.0
 40
9.0
 40
9.0
 40
9.0
 40
10.0
 40
10.0
 40
10.0
 40
11.0
 40
11.0
 40
11.0
 40
12.0
 40
12.0
 40
12.0
 40
13.0
 40
13.0
 40
13.0
 40
14.0
 40
14.0
 40
14.0
 40
15.0
 40
15.0
 40
15.0
 40
16.0
 40
16.0
 40
16.0
 40
17.0
 40
17.0
 40
17.0
 40
18.0
 40
18.0
 40
18.0
 40
19.0
 40
19.0
 40
19.0
 40
20.0
 40
20.0
 40
20.0
 40
21.0
 40
21.0
 40
21.0
 40
22.0
 40
22.0
 40
22.0
 40
23.0
 40
23.0
 40
23.0
 40
23.0
 10
24.9747461071938
 20
142.8622862715736
 10
24.9747461071938
 20
142.8622862715736
 10
25.40805141995219
 20
142.4954478223394
 10
25.40805141995219
 20
142.4954478223394
 10
25.40805141995219
 20
142.4954478223394
 10
39.80415440460039
 20
141.7956948564726
 10
58.67127285877987
 20
146.5875215590584
 10
75.95929109233863
 20
150.5504503956025
 10
91.14674537604718
 20
157.5379005039856
 10
95.12749280690181
 20
157.9676025022773
 10
96.3328300945172
 20
158.5546368016
 10
120.0743380763953
 20
146.407827513331
 10
121.0735815215076
 20
145.9961556380602
 10
149.5996434138195
 20
131.9313824998145
 10
178.7871582085906
 20
123.3511977774103
 10
179.7306177105496
 20
123.2372770738034
 10
179.7306177105496
 20
123.2372770738034
 10
179.5935255910494
 20
123.6663303753243
 10
179.5935255910494
 20
123.6663303753243
 10
179.5935255910494
 20
123.6663303753243
 10
179.7306177105496
 20
123.2372770738034
 10
179.7306177105496
 20
123.2372770738034
 10
179.7306177105496
 20
123.2372770738034
 10
182.7113254757355
 20
127.9370102838437
 10
182.7113254757355
 20
127.9370102838437
 10
182.7113254757355
 20
127.9370102838437
 10
182.6114561674412
 20
128.4078630936555
 10
182.6114561674412
 20
128.4078630936555
 10
182.6114561674412
 20
128.4078630936555
 10
181.0022148060559
 20
129.0942776514017
 10
181.0022148060559
 20
129.0942776514017
 10
181.0022148060559
 20
129.0942776514017
 10
185.615860923482
 20
128.5538943156355
 10
185.615860923482
 20
128.5538943156355
 10
185.615860923482
 20
128.5538943156355
 10
185.8086424856611
 20
128.8485268322022
 10
185.8086424856611
 20
128.8485268322022
 10
185.8086424856611
 20
128.8485268322022
 10
183.9086855203668
 20
129.7548713892539
 10
183.9086855203668
 20
129.7548713892539
 10
183.9086855203668
 20
129.7548713892539
 10
186.285223883004
 20
133.5496013405741
 10
186.285223883004
 20
133.5496013405741
 10
186.285223883004
 20
133.5496013405741
 10
186.1346590130012
 20
133.9434842699372
 10
186.1346590130012
 20
133.9434842699372
 10
186.1346590130012
 20
133.9434842699372
 10
149.6824584186037
 20
139.9282277874696
 10
149.6824584186037
 20
139.9282277874696
 10
149.6824584186037
 20
139.9282277874696
 10
115.1199323283386
 20
157.2025643746227
 10
115.1199323283386
 20
157.2025643746227
 10
115.1199323283386
 20
157.2025643746227
 10
97.71661813868351
 20
160.8730621318922
 10
97.71661813868351
 20
160.8730621318922
 10
97.71661813868351
 20
160.8730621318922
 10
90.19038937887596
 20
159.8631997412108
 10
90.19038937887596
 20
159.8631997412108
 10
90.19038937887596
 20
159.8631997412108
 10
59.58939109673042
 20
149.7701797148722
 10
59.58939109673042
 20
149.7701797148722
 10
59.58939109673042
 20
149.7701797148722
 10
38.05320040947726
 20
147.0156827012345
 10
38.05320040947726
 20
147.0156827012345
 10
38.05320040947726
 20
147.0156827012345
 10
27.52956502106437
 20
144.8381408274605
 10
27.52956502106437
 20
144.8381408274605
 10
27.52956502106437
 20
144.8381408274605
 10
24.9747461071938
 20
142.8622862715736
 10
24.9747461071938
 20
142.8622862715736
 97
        0
 97
        0
 75
     2
 76
     1
 98
        0
  0
SPLINE
  5
43
330
1F
100
AcDbEntity
  8
_U+56FE_U+5C42 1
 62
     7
420
 16777215
370
     9
100
AcDbSpline
210
0.0
220
0.0
230
1.0
 70
    11
 71
     3
 72
    62
 73
    58
 74
     0
 42
0.0000000001
 43
0.0000000001
 12
1.0
 22
0.0
 32
0.0
 13
1.0
 23
0.0
 33
0.0
 40
0.0
 40
0.0
 40
0.0
 40
0.0
 40
1.0
 40
1.0
 40
1.0
 40
2.0
 40
2.0
 40
2.0
 40
3.0
 40
3.0
 40
3.0
 40
4.0
 40
4.0
 40
4.0
 40
5.0
 40
5.0
 40
5.0
 40
6.0
 40
6.0
 40
6.0
 40
7.0
 40
7.0
 40
7.0
 40
8.0
 40
8.0
 40
8.0
 40
9.0
 40
9.0
 40
9.0
 40
10.0
 40
10.0
 40
10.0
 40
11.0
 40
11.0
 40
11.0
 40
12.0
 40
12.0
 40
12.0
 40
13.0
 40
13.0
 40
13.0
 40
14.0
 40
14.0
 40
14.0
 40
15.0
 40
15.0
 40
15.0
 40
16.0
 40
16.0
 40
16.0
 40
17.0
 40
17.0
 40
17.0
 40
18.0
 40
18.0
 40
18.0
 40
19.0
 40
19.0
 40
19.0
 40
19.0
 10
24.9747461071938
 20
142.8622862715736
 30
0.0
 10
24.9747461071938
 20
142.8622862715736
 30
0.0
 10
26.53383781177612
 20
145.6736141430204
 30
0.0
 10
26.53383781177612
 20
145.6736141430204
 30
0.0
 10
26.53383781177612
 20
145.6736141430204
 30
0.0
 10
24.7025110959456
 20
146.4979201567352
 30
0.0
 10
24.7025110959456
 20
146.4979201567352
 30
0.0
 10
24.7025110959456
 20
146.4979201567352
 30
0.0
 10
29.15849028376244
 20
146.831634745498
 30
0.0
 10
29.15849028376244
 20
146.831634745498
 30
0.0
 10
29.15849028376244
 20
146.831634745498
 30
0.0
 10
27.41844336850955
 20
147.2691138856062
 30
0.0
 10
27.41844336850955
 20
147.2691138856062
 30
0.0
 10
27.41844336850955
 20
147.2691138856062
 30
0.0
 10
28.61089655579846
 20
149.4196596795099
 30
0.0
 10
28.61089655579846
 20
149.4196596795099
 30
0.0
 10
28.61089655579846
 20
149.4196596795099
 30
0.0
 10
50.87008106746325
 20
148.2218869110723
 30
0.0
 10
76.83449983249577
 20
156.8112620167366
 30
0.0
 10
91.73021863353941
 20
162.8962353533649
 30
0.0
 10
76.83449983249577
 20
156.8112620167366
 30
0.0
 10
76.83449983249577
 20
156.8112620167366
 30
0.0
 10
76.83449983249577
 20
156.8112620167366
 30
0.0
 10
98.60968912942941
 20
163.8685074236407
 30
0.0
 10
98.92358654837517
 20
164.3212409144062
 30
0.0
 10
98.92358654837517
 20
164.3212409144062
 30
0.0
 10
105.7125052662648
 20
165.4203841581456
 30
0.0
 10
111.1006269118735
 20
162.7574385695393
 30
0.0
 10
116.4887476059887
 20
160.0944549638818
 30
0.0
 10
147.0957886023538
 20
145.0522937891851
 30
0.0
 10
186.1346590130012
 20
133.9434842699372
 30
0.0
 10
186.1346590130012
 20
133.9434842699372
 30
0.0
 10
183.571227722954
 20
129.9159767561838
 30
0.0
 10
183.571227722954
 20
129.9159767561838
 30
0.0
 10
183.571227722954
 20
129.9159767561838
 30
0.0
 10
185.8086424856611
 20
128.8485268322022
 30
0.0
 10
185.8086424856611
 20
128.8485268322022
 30
0.0
 10
185.8086424856611
 20
128.8485268322022
 30
0.0
 10
179.8575503071562
 20
129.5823162946733
 30
0.0
 10
179.8575503071562
 20
129.5823162946733
 30
0.0
 10
179.8575503071562
 20
129.5823162946733
 30
0.0
 10
182.6114561674412
 20
128.4078630936555
 30
0.0
 10
182.6114561674412
 20
128.4078630936555
 30
0.0
 10
182.6114561674412
 20
128.4078630936555
 30
0.0
 10
179.5935255910494
 20
123.6663303753243
 30
0.0
 10
179.5935255910494
 20
123.6663303753243
 30
0.0
 10
179.5935255910494
 20
123.6663303753243
 30
0.0
 10
157.4367657839408
 20
130.4101779274164
 30
0.0
 10
136.9197371366509
 20
139.2196584205152
 30
0.0
 10
116.6911244905566
 20
147.9050791241897
 30
0.0
 10
98.11990116436274
 20
158.6595020124271
 30
0.0
 10
95.15535281275871
 20
158.378725809398
 30
0.0
 10
92.03710548609409
 20
158.0832048006445
 30
0.0
 10
75.67304376495693
 20
151.0235329564476
 30
0.0
 10
59.09309637302577
 20
147.0690699190658
 30
0.0
 10
40.09859741382008
 20
142.462415902616
 30
0.0
 10
28.46557247693588
 20
142.8982873955671
 30
0.0
 10
24.9747461071938
 20
142.8622862715736
 30
0.0
  0
HATCH
  5
44
330
1F
100
AcDbEntity
  8
_U+56FE_U+5C42 1
 62
   254
420
 13358815
100
AcDbHatch
 10
0.0
 20
0.0
 30
0.0
210
0.0
220
0.0
230
1.0
  2
SOLID
 70
     1
 71
     0
 91
        1
 92
        1
 93
        1
 72
     4
 94
        3
 73
     0
 74
     1
 95
       62
 96
       58
 40
0.0
 40
0.0
 40
0.0
 40
0.0
 40
1.0
 40
1.0
 40
1.0
 40
2.0
 40
2.0
 40
2.0
 40
3.0
 40
3.0
 40
3.0
 40
4.0
 40
4.0
 40
4.0
 40
5.0
 40
5.0
 40
5.0
 40
6.0
 40
6.0
 40
6.0
 40
7.0
 40
7.0
 40
7.0
 40
8.0
 40
8.0
 40
8.0
 40
9.0
 40
9.0
 40
9.0
 40
10.0
 40
10.0
 40
10.0
 40
11.0
 40
11.0
 40
11.0
 40
12.0
 40
12.0
 40
12.0
 40
13.0
 40
13.0
 40
13.0
 40
14.0
 40
14.0
 40
14.0
 40
15.0
 40
15.0
 40
15.0
 40
16.0
 40
16.0
 40
16.0
 40
17.0
 40
17.0
 40
17.0
 40
18.0
 40
18.0
 40
18.0
 40
19.0
 40
19.0
 40
19.0
 40
19.0
 10
24.9747461071938
 20
142.8622862715736
 10
24.9747461071938
 20
142.8622862715736
 10
26.53383781177612
 20
145.6736141430204
 10
26.53383781177612
 20
145.6736141430204
 10
26.53383781177612
 20
145.6736141430204
 10
24.7025110959456
 20
146.4979201567352
 10
24.7025110959456
 20
146.4979201567352
 10
24.7025110959456
 20
146.4979201567352
 10
29.15849028376244
 20
146.831634745498
 10
29.15849028376244
 20
146.831634745498
 10
29.15849028376244
 20
146.831634745498
 10
27.41844336850955
 20
147.2691138856062
 10
27.41844336850955
 20
147.2691138856062
 10
27.41844336850955
 20
147.2691138856062
 10
28.61089655579846
 20
149.4196596795099
 10
28.61089655579846
 20
149.4196596795099
 10
28.61089655579846
 20
149.4196596795099
 10
50.87008106746325
 20
148.2218869110723
 10
76.83449983249577
 20
156.8112620167366
 10
91.73021863353941
 20
162.8962353533649
 10
76.83449983249577
 20
156.8112620167366
 10
76.83449983249577
 20
156.8112620167366
 10
76.83449983249577
 20
156.8112620167366
 10
98.60968912942941
 20
163.8685074236407
 10
98.92358654837517
 20
164.3212409144062
 10
98.92358654837517
 20
164.3212409144062
 10
105.7125052662648
 20
165.4203841581456
 10
111.1006269118735
 20
162.7574385695393
 10
116.4887476059887
 20
160.0944549638818
 10
147.0957886023538
 20
145.0522937891851
 10
186.1346590130012
 20
133.9434842699372
 10
186.1346590130012
 20
133.9434842699372
 10
183.571227722954
 20
129.9159767561838
 10
183.571227722954
 20
129.9159767561838
 10
183.571227722954
 20
129.9159767561838
 10
185.8086424856611
 20
128.8485268322022
 10
185.8086424856611
 20
128.8485268322022
 10
185.8086424856611
 20
128.8485268322022
 10
179.8575503071562
 20
129.5823162946733
 10
179.8575503071562
 20
129.5823162946733
 10
179.8575503071562
 20
129.5823162946733
 10
182.6114561674412
 20
128.4078630936555
 10
182.6114561674412
 20
128.4078630936555
 10
182.6114561674412
 20
128.4078630936555
 10
179.5935255910494
 20
123.6663303753243
 10
179.5935255910494
 20
123.6663303753243
 10
179.5935255910494
 20
123.6663303753243
 10
157.4367657839408
 20
130.4101779274164
 10
136.9197371366509
 20
139.2196584205152
 10
116.6911244905566
 20
147.9050791241897
 10
98.11990116436274
 20
158.6595020124271
 10
95.15535281275871
 20
158.378725809398
 10
92.03710548609409
 20
158.0832048006445
 10
75.67304376495693
 20
151.0235329564476
 10
59.09309637302577
 20
147.0690699190658
 10
40.09859741382008
 20
142.462415902616
 10
28.46557247693588
 20
142.8982873955671
 10
24.9747461071938
 20
142.8622862715736
 97
        0
 97
        0
 75
     2
 76
     1
 98
        0
  0
SPLINE
  5
45
330
1F
100
AcDbEntity
  8
_U+56FE_U+5C42 1
 62
     7
420
 16777215
370
     9
100
AcDbSpline
210
0.0
220
0.0
230
1.0
 70
    11
 71
     3
 72
    23
 73
    19
 74
     0
 42
0.0000000001
 43
0.0000000001
 12
1.0
 22
0.0
 32
0.0
 13
1.0
 23
0.0
 33
0.0
 40
0.0
 40
0.0
 40
0.0
 40
0.0
 40
1.0
 40
1.0
 40
1.0
 40
2.0
 40
2.0
 40
2.0
 40
3.0
 40
3.0
 40
3.0
 40
4.0
 40
4.0
 40
4.0
 40
5.0
 40
5.0
 40
5.0
 40
6.0
 40
6.0
 40
6.0
 40
6.0
 10
99.23784017861207
 20
164.7739654898943
 30
0.0
 10
99.23784017861207
 20
164.7739654898943
 30
0.0
 10
99.40804430627722
 20
162.5000695930074
 30
0.0
 10
99.40804430627722
 20
162.5000695930074
 30
0.0
 10
99.40804430627722
 20
162.5000695930074
 30
0.0
 10
99.58244151901016
 20
161.9501748359141
 30
0.0
 10
101.9540771256553
 20
162.0734370672869
 30
0.0
 10
103.4057683136912
 20
162.1487578955917
 30
0.0
 10
103.5212366875219
 20
162.8933558208931
 30
0.0
 10
103.5212366875219
 20
162.8933558208931
 30
0.0
 10
103.5212366875219
 20
162.8933558208931
 30
0.0
 10
103.3367954064019
 20
162.9996391305642
 30
0.0
 10
103.3367954064019
 20
162.9996391305642
 30
0.0
 10
103.3367954064019
 20
162.9996391305642
 30
0.0
 10
99.79776318196367
 20
166.0231504559198
 30
0.0
 10
99.69482457957355
 20
165.6692038182257
 30
0.0
 10
99.69482457957355
 20
165.6692038182257
 30
0.0
 10
99.23784017861207
 20
164.7739654898943
 30
0.0
 10
99.23784017861207
 20
164.7739654898943
 30
0.0
  0
HATCH
  5
46
330
1F
100
AcDbEntity
  8
_U+56FE_U+5C42 1
 62
   254
420
 13358815
100
AcDbHatch
 10
0.0
 20
0.0
 30
0.0
210
0.0
220
0.0
230
1.0
  2
SOLID
 70
     1
 71
     0
 91
        1
 92
        1
 93
        1
 72
     4
 94
        3
 73
     0
 74
     1
 95
       23
 96
       19
 40
0.0
 40
0.0
 40
0.0
 40
0.0
 40
1.0
 40
1.0
 40
1.0
 40
2.0
 40
2.0
 40
2.0
 40
3.0
 40
3.0
 40
3.0
 40
4.0
 40
4.0
 40
4.0
 40
5.0
 40
5.0
 40
5.0
 40
6.0
 40
6.0
 40
6.0
 40
6.0
 10
99.23784017861207
 20
164.7739654898943
 10
99.23784017861207
 20
164.7739654898943
 10
99.40804430627722
 20
162.5000695930074
 10
99.40804430627722
 20
162.5000695930074
 10
99.40804430627722
 20
162.5000695930074
 10
99.58244151901016
 20
161.9501748359141
 10
101.9540771256553
 20
162.0734370672869
 10
103.4057683136912
 20
162.1487578955917
 10
103.5212366875219
 20
162.8933558208931
 10
103.5212366875219
 20
162.8933558208931
 10
103.5212366875219
 20
162.8933558208931
 10
103.3367954064019
 20
162.9996391305642
 10
103.3367954064019
 20
162.9996391305642
 10
103.3367954064019
 20
162.9996391305642
 10
99.79776318196367
 20
166.0231504559198
 10
99.69482457957355
 20
165.6692038182257
 10
99.69482457957355
 20
165.6692038182257
 10
99.23784017861207
 20
164.7739654898943
 10
99.23784017861207
 20
164.7739654898943
 97
        0
 97
        0
 75
     2
 76
     1
 98
        0
  0
SPLINE
  5
47
330
1F
100
AcDbEntity
  8
_U+56FE_U+5C42 1
 62
     7
420
 16777215
370
    18
100
AcDbSpline
210
0.0
220
0.0
230
1.0
 70
    11
 71
     3
 72
    62
 73
    58
 74
     0
 42
0.0000000001
 43
0.0000000001
 12
1.0
 22
0.0
 32
0.0
 13
1.0
 23
0.0
 33
0.0
 40
0.0
 40
0.0
 40
0.0
 40
0.0
 40
1.0
 40
1.0
 40
1.0
 40
2.0
 40
2.0
 40
2.0
 40
3.0
 40
3.0
 40
3.0
 40
4.0
 40
4.0
 40
4.0
 40
5.0
 40
5.0
 40
5.0
 40
6.0
 40
6.0
 40
6.0
 40
7.0
 40
7.0
 40
7.0
 40
8.0
 40
8.0
 40
8.0
 40
9.0
 40
9.0
 40
9.0
 40
10.0
 40
10.0
 40
10.0
 40
11.0
 40
11.0
 40
11.0
 40
12.0
 40
12.0
 40
12.0
 40
13.0
 40
13.0
 40
13.0
 40
14.0
 40
14.0
 40
14.0
 40
15.0
 40
15.0
 40
15.0
 40
16.0
 40
16.0
 40
16.0
 40
17.0
 40
17.0
 40
17.0
 40
18.0
 40
18.0
 40
18.0
 40
19.0
 40
19.0
 40
19.0
 40
19.0
 10
74.00452570774037
 20
154.7602796403096
 30
0.0
 10
74.00452570774037
 20
154.7602796403096
 30
0.0
 10
74.49019421230753
 20
153.2638381143527
 30
0.0
 10
74.49019421230753
 20
153.2638381143527
 30
0.0
 10
74.49019421230753
 20
153.2638381143527
 30
0.0
 10
77.75204386180337
 20
153.1001920752533
 30
0.0
 10
77.75204386180337
 20
153.1001920752533
 30
0.0
 10
77.75204386180337
 20
153.1001920752533
 30
0.0
 10
82.77597143233588
 20
156.806957532172
 30
0.0
 10
82.77597143233588
 20
156.806957532172
 30
0.0
 10
82.77597143233588
 20
156.806957532172
 30
0.0
 10
90.17115826095738
 20
162.0826776140815
 30
0.0
 10
90.17115826095738
 20
162.0826776140815
 30
0.0
 10
90.17115826095738
 20
162.0826776140815
 30
0.0
 10
93.01003612618076
 20
168.5924245560373
 30
0.0
 10
103.1669103355336
 20
163.096594765208
 30
0.0
 10
112.0520358128959
 20
158.0729935436791
 30
0.0
 10
112.915657679633
 20
152.3724216683339
 30
0.0
 10
116.3663687524479
 20
149.2899622924744
 30
0.0
 10
116.3663687524479
 20
149.2899622924744
 30
0.0
 10
118.8884753502397
 20
147.9355532312891
 30
0.0
 10
120.7762522865282
 20
148.008923041469
 30
0.0
 10
120.7762522865282
 20
148.008923041469
 30
0.0
 10
128.5731220771036
 20
155.9912264768172
 30
0.0
 10
128.5731220771036
 20
155.9912264768172
 30
0.0
 10
128.5731220771036
 20
155.9912264768172
 30
0.0
 10
128.7434706649401
 20
157.8895952287155
 30
0.0
 10
128.7434706649401
 20
157.8895952287155
 30
0.0
 10
128.7434706649401
 20
157.8895952287155
 30
0.0
 10
126.7656953097804
 20
158.2457902765924
 30
0.0
 10
126.7656953097804
 20
158.2457902765924
 30
0.0
 10
126.7656953097804
 20
158.2457902765924
 30
0.0
 10
126.0322892696942
 20
158.1469871092415
 30
0.0
 10
125.1272785180039
 20
159.0342845418475
 30
0.0
 10
124.2217950271601
 20
159.9222642938565
 30
0.0
 10
115.2017965650807
 20
173.264873300034
 30
0.0
 10
115.2017965650807
 20
173.264873300034
 30
0.0
 10
115.2017965650807
 20
173.264873300034
 30
0.0
 10
113.0047070548678
 20
175.2286699746093
 30
0.0
 10
111.7509251173403
 20
175.7557871044216
 30
0.0
 10
110.2676333452451
 20
176.3791289650072
 30
0.0
 10
109.6974468473024
 20
176.095985415381
 30
0.0
 10
95.8811605509033
 20
177.0927531728041
 30
0.0
 10
95.8811605509033
 20
177.0927531728041
 30
0.0
 10
94.62835743358224
 20
176.8397863454208
 30
0.0
 10
92.96894682337236
 20
176.326998963127
 30
0.0
 10
92.96894682337236
 20
176.326998963127
 30
0.0
 10
91.41758276377827
 20
175.2992595268903
 30
0.0
 10
91.41758276377827
 20
175.2992595268903
 30
0.0
 10
91.41758276377827
 20
175.2992595268903
 30
0.0
 10
87.29895655111035
 20
173.2986327767067
 30
0.0
 10
85.15747730467584
 20
170.2272280156876
 30
0.0
 10
85.15747730467584
 20
170.2272280156876
 30
0.0
 10
80.1206056250241
 20
160.1913801574474
 30
0.0
 10
79.39496799014692
 20
159.0805813941659
 30
0.0
 10
78.66929508853684
 20
157.9697835135427
 30
0.0
 10
74.00452570774037
 20
154.7602796403096
 30
0.0
 10
74.00452570774037
 20
154.7602796403096
 30
0.0
  0
HATCH
  5
48
330
1F
100
AcDbEntity
  8
_U+56FE_U+5C42 1
 62
   254
420
 13358815
100
AcDbHatch
 10
0.0
 20
0.0
 30
0.0
210
0.0
220
0.0
230
1.0
  2
SOLID
 70
     1
 71
     0
 91
        1
 92
        1
 93
        1
 72
     4
 94
        3
 73
     0
 74
     1
 95
       62
 96
       58
 40
0.0
 40
0.0
 40
0.0
 40
0.0
 40
1.0
 40
1.0
 40
1.0
 40
2.0
 40
2.0
 40
2.0
 40
3.0
 40
3.0
 40
3.0
 40
4.0
 40
4.0
 40
4.0
 40
5.0
 40
5.0
 40
5.0
 40
6.0
 40
6.0
 40
6.0
 40
7.0
 40
7.0
 40
7.0
 40
8.0
 40
8.0
 40
8.0
 40
9.0
 40
9.0
 40
9.0
 40
10.0
 40
10.0
 40
10.0
 40
11.0
 40
11.0
 40
11.0
 40
12.0
 40
12.0
 40
12.0
 40
13.0
 40
13.0
 40
13.0
 40
14.0
 40
14.0
 40
14.0
 40
15.0
 40
15.0
 40
15.0
 40
16.0
 40
16.0
 40
16.0
 40
17.0
 40
17.0
 40
17.0
 40
18.0
 40
18.0
 40
18.0
 40
19.0
 40
19.0
 40
19.0
 40
19.0
 10
74.00452570774037
 20
154.7602796403096
 10
74.00452570774037
 20
154.7602796403096
 10
74.49019421230753
 20
153.2638381143527
 10
74.49019421230753
 20
153.2638381143527
 10
74.49019421230753
 20
153.2638381143527
 10
77.75204386180337
 20
153.1001920752533
 10
77.75204386180337
 20
153.1001920752533
 10
77.75204386180337
 20
153.1001920752533
 10
82.77597143233588
 20
156.806957532172
 10
82.77597143233588
 20
156.806957532172
 10
82.77597143233588
 20
156.806957532172
 10
90.17115826095738
 20
162.0826776140815
 10
90.17115826095738
 20
162.0826776140815
 10
90.17115826095738
 20
162.0826776140815
 10
93.01003612618076
 20
168.5924245560373
 10
103.1669103355336
 20
163.096594765208
 10
112.0520358128959
 20
158.0729935436791
 10
112.915657679633
 20
152.3724216683339
 10
116.3663687524479
 20
149.2899622924744
 10
116.3663687524479
 20
149.2899622924744
 10
118.8884753502397
 20
147.9355532312891
 10
120.7762522865282
 20
148.008923041469
 10
120.7762522865282
 20
148.008923041469
 10
128.5731220771036
 20
155.9912264768172
 10
128.5731220771036
 20
155.9912264768172
 10
128.5731220771036
 20
155.9912264768172
 10
128.7434706649401
 20
157.8895952287155
 10
128.7434706649401
 20
157.8895952287155
 10
128.7434706649401
 20
157.8895952287155
 10
126.7656953097804
 20
158.2457902765924
 10
126.7656953097804
 20
158.2457902765924
 10
126.7656953097804
 20
158.2457902765924
 10
126.0322892696942
 20
158.1469871092415
 10
125.1272785180039
 20
159.0342845418475
 10
124.2217950271601
 20
159.9222642938565
 10
115.2017965650807
 20
173.264873300034
 10
115.2017965650807
 20
173.264873300034
 10
115.2017965650807
 20
173.264873300034
 10
113.0047070548678
 20
175.2286699746093
 10
111.7509251173403
 20
175.7557871044216
 10
110.2676333452451
 20
176.3791289650072
 10
109.6974468473024
 20
176.095985415381
 10
95.8811605509033
 20
177.0927531728041
 10
95.8811605509033
 20
177.0927531728041
 10
94.62835743358224
 20
176.8397863454208
 10
92.96894682337236
 20
176.326998963127
 10
92.96894682337236
 20
176.326998963127
 10
91.41758276377827
 20
175.2992595268903
 10
91.41758276377827
 20
175.2992595268903
 10
91.41758276377827
 20
175.2992595268903
 10
87.29895655111035
 20
173.2986327767067
 10
85.15747730467584
 20
170.2272280156876
 10
85.15747730467584
 20
170.2272280156876
 10
80.1206056250241
 20
160.1913801574474
 10
79.39496799014692
 20
159.0805813941659
 10
78.66929508853684
 20
157.9697835135427
 10
74.00452570774037
 20
154.7602796403096
 10
74.00452570774037
 20
154.7602796403096
 97
        0
 97
        0
 75
     2
 76
     1
 98
        0
  0
POLYLINE
  5
49
330
1F
100
AcDbEntity
  8
_U+56FE_U+5C42 1
 62
     7
420
 16777215
370
    18
100
AcDb2dPolyline
 66
     1
 10
0.0
 20
0.0
 30
0.0
  0
VERTEX
  5
4A
330
49
100
AcDbEntity
  8
_U+56FE_U+5C42 1
 62
     7
420
 16777215
370
    18
100
AcDbVertex
100
AcDb2dVertex
 10
74.00452570774037
 20
154.7602796403096
 30
0.0
  0
VERTEX
  5
4B
330
49
100
AcDbEntity
  8
_U+56FE_U+5C42 1
 62
     7
420
 16777215
370
    18
100
AcDbVertex
100
AcDb2dVertex
 10
76.99928727244045
 20
154.6098437786612
 30
0.0
  0
SEQEND
  5
4C
330
49
100
AcDbEntity
  8
_U+56FE_U+5C42 1
 62
     7
420
 16777215
370
    18
  0
SPLINE
  5
4D
330
1F
100
AcDbEntity
  8
_U+56FE_U+5C42 1
 62
     7
420
 16777215
370
    18
100
AcDbSpline
210
0.0
220
0.0
230
1.0
 70
     8
 71
     3
 72
     8
 73
     4
 74
     0
 42
0.0000000001
 43
0.0000000001
 12
1.0
 22
0.0
 32
0.0
 13
1.0
 23
0.0
 33
0.0
 40
0.0
 40
0.0
 40
0.0
 40
0.0
 40
1.0
 40
1.0
 40
1.0
 40
1.0
 10
76.99928727244045
 20
154.6098437786612
 30
0.0
 10
85.20147337244912
 20
158.2153257176121
 30
0.0
 10
84.44870846529085
 20
165.4942444525911
 30
0.0
 10
96.15491599922599
 20
165.2977404548389
 30
0.0
  0
POLYLINE
  5
4E
330
1F
100
AcDbEntity
  8
_U+56FE_U+5C42 1
 62
     7
420
 16777215
370
    18
100
AcDb2dPolyline
 66
     1
 10
0.0
 20
0.0
 30
0.0
  0
VERTEX
  5
4F
330
4E
100
AcDbEntity
  8
_U+56FE_U+5C42 1
 62
     7
420
 16777215
370
    18
100
AcDbVertex
100
AcDb2dVertex
 10
76.99928727244045
 20
154.6098437786612
 30
0.0
  0
VERTEX
  5
50
330
4E
100
AcDbEntity
  8
_U+56FE_U+5C42 1
 62
     7
420
 16777215
370
    18
100
AcDbVertex
100
AcDb2dVertex
 10
77.75204386180337
 20
153.1001920752533
 30
0.0
  0
SEQEND
  5
51
330
4E
100
AcDbEntity
  8
_U+56FE_U+5C42 1
 62
     7
420
 16777215
370
    18
  0
POLYLINE
  5
52
330
1F
100
AcDbEntity
  8
_U+56FE_U+5C42 1
 62
     7
420
 16777215
370
    18
100
AcDb2dPolyline
 66
     1
 10
0.0
 20
0.0
 30
0.0
  0
VERTEX
  5
53
330
52
100
AcDbEntity
  8
_U+56FE_U+5C42 1
 62
     7
420
 16777215
370
    18
100
AcDbVertex
100
AcDb2dVertex
 10
126.7656953097804
 20
158.2457902765924
 30
0.0
  0
VERTEX
  5
54
330
52
100
AcDbEntity
  8
_U+56FE_U+5C42 1
 62
     7
420
 16777215
370
    18
100
AcDbVertex
100
AcDb2dVertex
 10
118.7259324696027
 20
149.8191717089885
 30
0.0
  0
VERTEX
  5
55
330
52
100
AcDbEntity
  8
_U+56FE_U+5C42 1
 62
     7
420
 16777215
370
    18
100
AcDbVertex
100
AcDb2dVertex
 10
119.1115906056674
 20
148.2225487312467
 30
0.0
  0
SEQEND
  5
56
330
52
100
AcDbEntity
  8
_U+56FE_U+5C42 1
 62
     7
420
 16777215
370
    18
  0
POLYLINE
  5
57
330
1F
100
AcDbEntity
  8
_U+56FE_U+5C42 1
 62
     7
420
 16777215
370
    18
100
AcDb2dPolyline
 66
     1
 10
0.0
 20
0.0
 30
0.0
  0
VERTEX
  5
58
330
57
100
AcDbEntity
  8
_U+56FE_U+5C42 1
 62
     7
420
 16777215
370
    18
100
AcDbVertex
100
AcDb2dVertex
 10
120.7442363309104
 20
148.1693004017595
 30
0.0
  0
VERTEX
  5
59
330
57
100
AcDbEntity
  8
_U+56FE_U+5C42 1
 62
     7
420
 16777215
370
    18
100
AcDbVertex
100
AcDb2dVertex
 10
120.494577028316
 20
149.4358186684249
 30
0.0
  0
VERTEX
  5
5A
330
57
100
AcDbEntity
  8
_U+56FE_U+5C42 1
 62
     7
420
 16777215
370
    18
100
AcDbVertex
100
AcDb2dVertex
 10
128.7434706649401
 20
157.8895952287155
 30
0.0
  0
SEQEND
  5
5B
330
57
100
AcDbEntity
  8
_U+56FE_U+5C42 1
 62
     7
420
 16777215
370
    18
  0
SPLINE
  5
5C
330
1F
100
AcDbEntity
  8
_U+56FE_U+5C42 1
 62
     7
420
 16777215
370
    18
100
AcDbSpline
210
0.0
220
0.0
230
1.0
 70
     8
 71
     3
 72
    20
 73
    16
 74
     0
 42
0.0000000001
 43
0.0000000001
 12
1.0
 22
0.0
 32
0.0
 13
1.0
 23
0.0
 33
0.0
 40
0.0
 40
0.0
 40
0.0
 40
0.0
 40
1.0
 40
1.0
 40
1.0
 40
2.0
 40
2.0
 40
2.0
 40
3.0
 40
3.0
 40
3.0
 40
4.0
 40
4.0
 40
4.0
 40
5.0
 40
5.0
 40
5.0
 40
5.0
 10
120.494577028316
 20
149.4358186684249
 30
0.0
 10
120.494577028316
 20
149.4358186684249
 30
0.0
 10
118.5672801434589
 20
149.7390522107395
 30
0.0
 10
117.382364738952
 20
150.1808818092212
 30
0.0
 10
117.382364738952
 20
150.1808818092212
 30
0.0
 10
116.5428594554755
 20
151.0472367803128
 30
0.0
 10
116.5428594554755
 20
151.0472367803128
 30
0.0
 10
116.5428594554755
 20
151.0472367803128
 30
0.0
 10
104.6384949933929
 20
166.8996466878645
 30
0.0
 10
104.6384949933929
 20
166.8996466878645
 30
0.0
 10
104.6384949933929
 20
166.8996466878645
 30
0.0
 10
89.89396358692393
 20
167.8465987517809
 30
0.0
 10
89.89396358692393
 20
167.8465987517809
 30
0.0
 10
89.89396358692393
 20
167.8465987517809
 30
0.0
 10
86.15114732283641
 20
168.0293758853395
 30
0.0
 10
85.15747730467584
 20
170.2272280156876
 30
0.0
  0
POLYLINE
  5
5D
330
1F
100
AcDbEntity
  8
_U+56FE_U+5C42 1
 62
     7
420
 16777215
370
    18
100
AcDb2dPolyline
 66
     1
 10
0.0
 20
0.0
 30
0.0
  0
VERTEX
  5
5E
330
5D
100
AcDbEntity
  8
_U+56FE_U+5C42 1
 62
     7
420
 16777215
370
    18
100
AcDbVertex
100
AcDb2dVertex
 10
125.3569967961712
 20
158.8279506841632
 30
0.0
  0
VERTEX
  5
5F
330
5D
100
AcDbEntity
  8
_U+56FE_U+5C42 1
 62
     7
420
 16777215
370
    18
100
AcDbVertex
100
AcDb2dVertex
 10
117.382364738952
 20
150.1808818092212
 30
0.0
  0
VERTEX
  5
60
330
5D
100
AcDbEntity
  8
_U+56FE_U+5C42 1
 62
     7
420
 16777215
370
    18
100
AcDbVertex
100
AcDb2dVertex
 10
115.8556295213003
 20
149.6690814128814
 30
0.0
  0
SEQEND
  5
61
330
5D
100
AcDbEntity
  8
_U+56FE_U+5C42 1
 62
     7
420
 16777215
370
    18
  0
SPLINE
  5
62
330
1F
100
AcDbEntity
  8
_U+56FE_U+5C42 1
 62
     7
420
 16777215
370
    18
100
AcDbSpline
210
0.0
220
0.0
230
1.0
 70
     8
 71
     3
 72
    17
 73
    13
 74
     0
 42
0.0000000001
 43
0.0000000001
 12
1.0
 22
0.0
 32
0.0
 13
1.0
 23
0.0
 33
0.0
 40
0.0
 40
0.0
 40
0.0
 40
0.0
 40
1.0
 40
1.0
 40
1.0
 40
2.0
 40
2.0
 40
2.0
 40
3.0
 40
3.0
 40
3.0
 40
4.0
 40
4.0
 40
4.0
 40
4.0
 10
115.9640400360244
 20
151.8250560629648
 30
0.0
 10
115.9640400360244
 20
151.8250560629648
 30
0.0
 10
110.479550970271
 20
167.1258214939621
 30
0.0
 10
108.7308788064492
 20
169.2631347260746
 30
0.0
 10
106.9825160348162
 20
171.400120037069
 30
0.0
 10
103.176581751788
 20
171.6356129691311
 30
0.0
 10
102.9670560192857
 20
171.6758635049721
 30
0.0
 10
102.7571502349331
 20
171.7164386850638
 30
0.0
 10
92.84610871964667
 20
172.9755906671439
 30
0.0
 10
92.84610871964667
 20
172.9755906671439
 30
0.0
 10
92.84610871964667
 20
172.9755906671439
 30
0.0
 10
88.94396463158891
 20
173.5248776984826
 30
0.0
 10
85.15747730467584
 20
170.2272280156876
 30
0.0
  0
SPLINE
  5
63
330
1F
100
AcDbEntity
  8
_U+56FE_U+5C42 1
 62
     7
420
 16777215
370
    18
100
AcDbSpline
210
0.0
220
0.0
230
1.0
 70
     8
 71
     3
 72
    20
 73
    16
 74
     0
 42
0.0000000001
 43
0.0000000001
 12
1.0
 22
0.0
 32
0.0
 13
1.0
 23
0.0
 33
0.0
 40
0.0
 40
0.0
 40
0.0
 40
0.0
 40
1.0
 40
1.0
 40
1.0
 40
2.0
 40
2.0
 40
2.0
 40
3.0
 40
3.0
 40
3.0
 40
4.0
 40
4.0
 40
4.0
 40
5.0
 40
5.0
 40
5.0
 40
5.0
 10
91.41758276377827
 20
175.2992595268903
 30
0.0
 10
91.41758276377827
 20
175.2992595268903
 30
0.0
 10
93.48328038769972
 20
176.1549406635773
 30
0.0
 10
94.66602674200094
 20
176.3074620845158
 30
0.0
 10
96.38016934677273
 20
176.5283467409419
 30
0.0
 10
105.083882168887
 20
175.7601781330018
 30
0.0
 10
105.083882168887
 20
175.7601781330018
 30
0.0
 10
105.083882168887
 20
175.7601781330018
 30
0.0
 10
109.9487813343884
 20
175.1855953248821
 30
0.0
 10
109.9487813343884
 20
175.1855953248821
 30
0.0
 10
109.9487813343884
 20
175.1855953248821
 30
0.0
 10
110.9190244184036
 20
175.0253441848403
 30
0.0
 10
111.9180731286505
 20
174.0068183787115
 30
0.0
 10
118.0925846608157
 20
167.7081073136646
 30
0.0
 10
124.9020176003984
 20
159.2932255653979
 30
0.0
 10
124.9020176003984
 20
159.2932255653979
 30
0.0
  0
SPLINE
  5
64
330
1F
100
AcDbEntity
  8
_U+56FE_U+5C42 1
 62
     7
420
 16777215
370
    18
100
AcDbSpline
210
0.0
220
0.0
230
1.0
 70
     8
 71
     3
 72
    20
 73
    16
 74
     0
 42
0.0000000001
 43
0.0000000001
 12
1.0
 22
0.0
 32
0.0
 13
1.0
 23
0.0
 33
0.0
 40
0.0
 40
0.0
 40
0.0
 40
0.0
 40
1.0
 40
1.0
 40
1.0
 40
2.0
 40
2.0
 40
2.0
 40
3.0
 40
3.0
 40
3.0
 40
4.0
 40
4.0
 40
4.0
 40
5.0
 40
5.0
 40
5.0
 40
5.0
 10
76.99928727244045
 20
154.6098437786612
 30
0.0
 10
76.99928727244045
 20
154.6098437786612
 30
0.0
 10
82.6004657232517
 20
162.6281510059885
 30
0.0
 10
82.7275572247097
 20
162.8727329872966
 30
0.0
 10
82.96220672438996
 20
163.3258971913295
 30
0.0
 10
86.28085508644853
 20
168.3784910324216
 30
0.0
 10
86.50391885083552
 20
168.8100661339008
 30
0.0
 10
87.04174577127715
 20
169.8516328237694
 30
0.0
 10
89.7334727468722
 20
172.2570957165063
 30
0.0
 10
90.97327391558181
 20
172.9266549278318
 30
0.0
 10
90.97327391558181
 20
172.9266549278318
 30
0.0
 10
94.66602674200094
 20
176.3074620845158
 30
0.0
 10
94.66602674200094
 20
176.3074620845158
 30
0.0
 10
94.66602674200094
 20
176.3074620845158
 30
0.0
 10
95.77006578327658
 20
177.1558422596913
 30
0.0
 10
96.74753253409673
 20
177.0925957471787
 30
0.0
  0
SPLINE
  5
65
330
1F
100
AcDbEntity
  8
_U+56FE_U+5C42 1
 62
     7
420
 16777215
370
    18
100
AcDbSpline
210
0.0
220
0.0
230
1.0
 70
     8
 71
     3
 72
    14
 73
    10
 74
     0
 42
0.0000000001
 43
0.0000000001
 12
1.0
 22
0.0
 32
0.0
 13
1.0
 23
0.0
 33
0.0
 40
0.0
 40
0.0
 40
0.0
 40
0.0
 40
1.0
 40
1.0
 40
1.0
 40
2.0
 40
2.0
 40
2.0
 40
3.0
 40
3.0
 40
3.0
 40
3.0
 10
104.6384949933929
 20
166.8996466878645
 30
0.0
 10
104.6384949933929
 20
166.8996466878645
 30
0.0
 10
104.4498211578854
 20
168.1184808246415
 30
0.0
 10
106.2669613923129
 20
170.9262439260563
 30
0.0
 10
106.2669613923129
 20
170.9262439260563
 30
0.0
 10
109.4503821304203
 20
174.7901986736537
 30
0.0
 10
109.4503821304203
 20
174.7901986736537
 30
0.0
 10
109.4503821304203
 20
174.7901986736537
 30
0.0
 10
110.569129916315
 20
175.8823741212235
 30
0.0
 10
111.7509251173403
 20
175.7557871044216
 30
0.0
  0
SPLINE
  5
66
330
1F
100
AcDbEntity
  8
_U+56FE_U+5C42 1
 62
     7
420
 16777215
370
    18
100
AcDbSpline
210
0.0
220
0.0
230
1.0
 70
     8
 71
     3
 72
    14
 73
    10
 74
     0
 42
0.0000000001
 43
0.0000000001
 12
1.0
 22
0.0
 32
0.0
 13
1.0
 23
0.0
 33
0.0
 40
0.0
 40
0.0
 40
0.0
 40
0.0
 40
1.0
 40
1.0
 40
1.0
 40
2.0
 40
2.0
 40
2.0
 40
3.0
 40
3.0
 40
3.0
 40
3.0
 10
112.5821222265486
 20
175.3412664430753
 30
0.0
 10
112.5821222265486
 20
175.3412664430753
 30
0.0
 10
113.144913696417
 20
174.5097505413594
 30
0.0
 10
112.5147359673492
 20
173.3934571854718
 30
0.0
 10
112.5147359673492
 20
173.3934571854718
 30
0.0
 10
108.4526608796717
 20
169.569064899262
 30
0.0
 10
108.4526608796717
 20
169.569064899262
 30
0.0
 10
108.4526608796717
 20
169.569064899262
 30
0.0
 10
106.8965988286846
 20
167.8981960000313
 30
0.0
 10
104.6384949933929
 20
166.8996466878645
 30
0.0
  0
POLYLINE
  5
67
330
1F
100
AcDbEntity
  8
_U+56FE_U+5C42 1
 62
     7
420
 16777215
370
    18
100
AcDb2dPolyline
 66
     1
 10
0.0
 20
0.0
 30
0.0
  0
VERTEX
  5
68
330
67
100
AcDbEntity
  8
_U+56FE_U+5C42 1
 62
     7
420
 16777215
370
    18
100
AcDbVertex
100
AcDb2dVertex
 10
94.46259294327818
 20
176.7715930190907
 30
0.0
  0
VERTEX
  5
F0
330
67
100
AcDbEntity
  8
0
100
AcDbVertex
100
AcDb2dVertex
 10
94.46259294327818
 20
176.7715930190907
 30
0.0
  0
SEQEND
  5
69
330
67
100
AcDbEntity
  8
_U+56FE_U+5C42 1
 62
     7
420
 16777215
370
    18
  0
POLYLINE
  5
6A
330
1F
100
AcDbEntity
  8
_U+56FE_U+5C42 1
 62
     7
420
 16777215
370
    18
100
AcDb2dPolyline
 66
     1
 10
0.0
 20
0.0
 30
0.0
  0
VERTEX
  5
6B
330
6A
100
AcDbEntity
  8
_U+56FE_U+5C42 1
 62
     7
420
 16777215
370
    18
100
AcDbVertex
100
AcDb2dVertex
 10
94.41639617496095
 20
176.8673232833862
 30
0.0
  0
VERTEX
  5
F1
330
6A
100
AcDbEntity
  8
0
100
AcDbVertex
100
AcDb2dVertex
 10
94.41639617496095
 20
176.8673232833862
 30
0.0
  0
SEQEND
  5
6C
330
6A
100
AcDbEntity
  8
_U+56FE_U+5C42 1
 62
     7
420
 16777215
370
    18
  0
SPLINE
  5
6D
330
1F
100
AcDbEntity
  8
_U+56FE_U+5C42 1
 62
     7
420
 16777215
370
    18
100
AcDbSpline
210
0.0
220
0.0
230
1.0
 70
     8
 71
     3
 72
    11
 73
     7
 74
     0
 42
0.0000000001
 43
0.0000000001
 12
1.0
 22
0.0
 32
0.0
 13
1.0
 23
0.0
 33
0.0
 40
0.0
 40
0.0
 40
0.0
 40
0.0
 40
1.0
 40
1.0
 40
1.0
 40
2.0
 40
2.0
 40
2.0
 40
2.0
 10
111.7509251173403
 20
175.7557871044216
 30
0.0
 10
110.2676333452451
 20
176.3791289650072
 30
0.0
 10
97.38687067490976
 20
177.1365853561601
 30
0.0
 10
95.8811605509033
 20
177.0927531728041
 30
0.0
 10
94.37510560380328
 20
177.0491037261093
 30
0.0
 10
94.62835743358224
 20
176.8397863454208
 30
0.0
 10
92.96894682337236
 20
176.326998963127
 30
0.0
  0
POLYLINE
  5
6E
330
1F
100
AcDbEntity
  8
_U+56FE_U+5C42 1
 62
     7
420
 16777215
370
     9
100
AcDb2dPolyline
 66
     1
 10
0.0
 20
0.0
 30
0.0
  0
VERTEX
  5
6F
330
6E
100
AcDbEntity
  8
_U+56FE_U+5C42 1
 62
     7
420
 16777215
370
     9
100
AcDbVertex
100
AcDb2dVertex
 10
103.5581101594379
 20
179.6634113678608
 30
0.0
  0
VERTEX
  5
70
330
6E
100
AcDbEntity
  8
_U+56FE_U+5C42 1
 62
     7
420
 16777215
370
     9
100
AcDbVertex
100
AcDb2dVertex
 10
103.4962309164176
 20
178.430380570066
 30
0.0
  0
VERTEX
  5
71
330
6E
100
AcDbEntity
  8
_U+56FE_U+5C42 1
 62
     7
420
 16777215
370
     9
100
AcDbVertex
100
AcDb2dVertex
 10
99.74467598057412
 20
177.5886268200597
 30
0.0
  0
VERTEX
  5
72
330
6E
100
AcDbEntity
  8
_U+56FE_U+5C42 1
 62
     7
420
 16777215
370
     9
100
AcDbVertex
100
AcDb2dVertex
 10
96.26403124894904
 20
178.0284523968922
 30
0.0
  0
VERTEX
  5
73
330
6E
100
AcDbEntity
  8
_U+56FE_U+5C42 1
 62
     7
420
 16777215
370
     9
100
AcDbVertex
100
AcDb2dVertex
 10
96.51140864571288
 20
179.2113885305181
 30
0.0
  0
VERTEX
  5
74
330
6E
100
AcDbEntity
  8
_U+56FE_U+5C42 1
 62
     7
420
 16777215
370
     9
100
AcDbVertex
100
AcDb2dVertex
 10
99.55524461061547
 20
180.2788121531864
 30
0.0
  0
VERTEX
  5
75
330
6E
100
AcDbEntity
  8
_U+56FE_U+5C42 1
 62
     7
420
 16777215
370
     9
100
AcDbVertex
100
AcDb2dVertex
 10
103.5581101594379
 20
179.6634113678608
 30
0.0
  0
SEQEND
  5
77
330
6E
100
AcDbEntity
  8
_U+56FE_U+5C42 1
 62
     7
420
 16777215
370
     9
  0
HATCH
  5
76
330
1F
100
AcDbEntity
  8
_U+56FE_U+5C42 1
 62
   254
420
 13358815
100
AcDbHatch
 10
0.0
 20
0.0
 30
0.0
210
0.0
220
0.0
230
1.0
  2
SOLID
 70
     1
 71
     0
 91
        1
 92
        1
 93
        6
 72
     1
 10
103.5581101594379
 20
179.6634113678608
 11
103.4962309164176
 21
178.430380570066
 72
     1
 10
103.4962309164176
 20
178.430380570066
 11
99.74467598057412
 21
177.5886268200597
 72
     1
 10
99.74467598057412
 20
177.5886268200597
 11
96.26403124894904
 21
178.0284523968922
 72
     1
 10
96.26403124894904
 20
178.0284523968922
 11
96.51140864571288
 21
179.2113885305181
 72
     1
 10
96.51140864571288
 20
179.2113885305181
 11
99.55524461061547
 21
180.2788121531864
 72
     1
 10
99.55524461061547
 20
180.2788121531864
 11
103.5581101594379
 21
179.6634113678608
 97
        0
 75
     2
 76
     1
 98
        0
  0
SPLINE
  5
78
330
1F
100
AcDbEntity
  8
_U+56FE_U+5C42 1
 62
     7
420
 16777215
370
     9
100
AcDbSpline
210
0.0
220
0.0
230
1.0
 70
    11
 71
     3
 72
    32
 73
    28
 74
     0
 42
0.0000000001
 43
0.0000000001
 12
1.0
 22
0.0
 32
0.0
 13
1.0
 23
0.0
 33
0.0
 40
0.0
 40
0.0
 40
0.0
 40
0.0
 40
1.0
 40
1.0
 40
1.0
 40
2.0
 40
2.0
 40
2.0
 40
3.0
 40
3.0
 40
3.0
 40
4.0
 40
4.0
 40
4.0
 40
5.0
 40
5.0
 40
5.0
 40
6.0
 40
6.0
 40
6.0
 40
7.0
 40
7.0
 40
7.0
 40
8.0
 40
8.0
 40
8.0
 40
9.0
 40
9.0
 40
9.0
 40
9.0
 10
104.0800198421577
 20
177.1644630491053
 30
0.0
 10
104.0800198421577
 20
177.1644630491053
 30
0.0
 10
105.164379171225
 20
177.0067197023244
 30
0.0
 10
105.0784687052967
 20
175.9147045909177
 30
0.0
 10
104.9925626526581
 20
174.8228658131755
 30
0.0
 10
102.1648751439649
 20
174.1997531901406
 30
0.0
 10
100.4237139364738
 20
174.1106450950908
 30
0.0
 10
98.68252107415131
 20
174.0215377923
 30
0.0
 10
95.20291407896727
 20
174.6818925479346
 30
0.0
 10
95.11285735442107
 20
175.6137599891165
 30
0.0
 10
95.0227981772209
 20
176.5458039358049
 30
0.0
 10
96.18921783863341
 20
176.5408894277232
 30
0.0
 10
96.18921783863341
 20
176.5408894277232
 30
0.0
 10
96.18921783863341
 20
176.5408894277232
 30
0.0
 10
96.26403124894904
 20
178.0284523968922
 30
0.0
 10
96.26403124894904
 20
178.0284523968922
 30
0.0
 10
96.26403124894904
 20
178.0284523968922
 30
0.0
 10
99.74467598057412
 20
177.5886268200597
 30
0.0
 10
99.74467598057412
 20
177.5886268200597
 30
0.0
 10
99.74467598057412
 20
177.5886268200597
 30
0.0
 10
103.4962309164176
 20
178.430380570066
 30
0.0
 10
103.4962309164176
 20
178.430380570066
 30
0.0
 10
103.4962309164176
 20
178.430380570066
 30
0.0
 10
103.5581101594379
 20
179.6634113678608
 30
0.0
 10
103.5581101594379
 20
179.6634113678608
 30
0.0
 10
103.5581101594379
 20
179.6634113678608
 30
0.0
 10
104.0800198421577
 20
177.1644630491053
 30
0.0
 10
104.0800198421577
 20
177.1644630491053
 30
0.0
  0
HATCH
  5
79
330
1F
100
AcDbEntity
  8
_U+56FE_U+5C42 1
 62
   254
420
 13358815
100
AcDbHatch
 10
0.0
 20
0.0
 30
0.0
210
0.0
220
0.0
230
1.0
  2
SOLID
 70
     1
 71
     0
 91
        1
 92
        1
 93
        1
 72
     4
 94
        3
 73
     0
 74
     1
 95
       32
 96
       28
 40
0.0
 40
0.0
 40
0.0
 40
0.0
 40
1.0
 40
1.0
 40
1.0
 40
2.0
 40
2.0
 40
2.0
 40
3.0
 40
3.0
 40
3.0
 40
4.0
 40
4.0
 40
4.0
 40
5.0
 40
5.0
 40
5.0
 40
6.0
 40
6.0
 40
6.0
 40
7.0
 40
7.0
 40
7.0
 40
8.0
 40
8.0
 40
8.0
 40
9.0
 40
9.0
 40
9.0
 40
9.0
 10
104.0800198421577
 20
177.1644630491053
 10
104.0800198421577
 20
177.1644630491053
 10
105.164379171225
 20
177.0067197023244
 10
105.0784687052967
 20
175.9147045909177
 10
104.9925626526581
 20
174.8228658131755
 10
102.1648751439649
 20
174.1997531901406
 10
100.4237139364738
 20
174.1106450950908
 10
98.68252107415131
 20
174.0215377923
 10
95.20291407896727
 20
174.6818925479346
 10
95.11285735442107
 20
175.6137599891165
 10
95.0227981772209
 20
176.5458039358049
 10
96.18921783863341
 20
176.5408894277232
 10
96.18921783863341
 20
176.5408894277232
 10
96.18921783863341
 20
176.5408894277232
 10
96.26403124894904
 20
178.0284523968922
 10
96.26403124894904
 20
178.0284523968922
 10
96.26403124894904
 20
178.0284523968922
 10
99.74467598057412
 20
177.5886268200597
 10
99.74467598057412
 20
177.5886268200597
 10
99.74467598057412
 20
177.5886268200597
 10
103.4962309164176
 20
178.430380570066
 10
103.4962309164176
 20
178.430380570066
 10
103.4962309164176
 20
178.430380570066
 10
103.5581101594379
 20
179.6634113678608
 10
103.5581101594379
 20
179.6634113678608
 10
103.5581101594379
 20
179.6634113678608
 10
104.0800198421577
 20
177.1644630491053
 10
104.0800198421577
 20
177.1644630491053
 97
        0
 97
        0
 75
     2
 76
     1
 98
        0
  0
SPLINE
  5
7A
330
1F
100
AcDbEntity
  8
_U+56FE_U+5C42 1
 62
     7
420
 16777215
370
     9
100
AcDbSpline
210
0.0
220
0.0
230
1.0
 70
     8
 71
     3
 72
    17
 73
    13
 74
     0
 42
0.0000000001
 43
0.0000000001
 12
1.0
 22
0.0
 32
0.0
 13
1.0
 23
0.0
 33
0.0
 40
0.0
 40
0.0
 40
0.0
 40
0.0
 40
1.0
 40
1.0
 40
1.0
 40
2.0
 40
2.0
 40
2.0
 40
3.0
 40
3.0
 40
3.0
 40
4.0
 40
4.0
 40
4.0
 40
4.0
 10
96.18921783863341
 20
176.5408894277232
 30
0.0
 10
96.18921783863341
 20
176.5408894277232
 30
0.0
 10
96.26083446709389
 20
175.6150238517397
 30
0.0
 10
96.26083446709389
 20
175.6150238517397
 30
0.0
 10
96.26083446709389
 20
175.6150238517397
 30
0.0
 10
98.15980979989983
 20
174.7541946550049
 30
0.0
 10
99.7145773799908
 20
174.9408127171091
 30
0.0
 10
99.7145773799908
 20
174.9408127171091
 30
0.0
 10
103.1193333149244
 20
175.0346537815597
 30
0.0
 10
103.6470183301973
 20
176.1658987083493
 30
0.0
 10
103.7558820690306
 20
176.564829113537
 30
0.0
 10
103.4962309164176
 20
178.430380570066
 30
0.0
 10
103.4962309164176
 20
178.430380570066
 30
0.0
  0
POLYLINE
  5
7B
330
1F
100
AcDbEntity
  8
_U+56FE_U+5C42 1
 62
     7
420
 16777215
370
     9
100
AcDb2dPolyline
 66
     1
 10
0.0
 20
0.0
 30
0.0
  0
VERTEX
  5
7C
330
7B
100
AcDbEntity
  8
_U+56FE_U+5C42 1
 62
     7
420
 16777215
370
     9
100
AcDbVertex
100
AcDb2dVertex
 10
99.7145773799908
 20
174.9408127171091
 30
0.0
  0
VERTEX
  5
7D
330
7B
100
AcDbEntity
  8
_U+56FE_U+5C42 1
 62
     7
420
 16777215
370
     9
100
AcDbVertex
100
AcDb2dVertex
 10
99.74467598057412
 20
177.5886268200597
 30
0.0
  0
SEQEND
  5
7E
330
7B
100
AcDbEntity
  8
_U+56FE_U+5C42 1
 62
     7
420
 16777215
370
     9
  0
POLYLINE
  5
7F
330
1F
100
AcDbEntity
  8
_U+56FE_U+5C42 1
 62
     7
420
 16777215
370
    35
100
AcDb2dPolyline
 66
     1
 10
0.0
 20
0.0
 30
0.0
  0
VERTEX
  5
80
330
7F
100
AcDbEntity
  8
_U+56FE_U+5C42 1
 62
     7
420
 16777215
370
    35
100
AcDbVertex
100
AcDb2dVertex
 10
104.0800198421577
 20
177.1644630491053
 30
0.0
  0
VERTEX
  5
F2
330
7F
100
AcDbEntity
  8
0
100
AcDbVertex
100
AcDb2dVertex
 10
104.0800198421577
 20
177.1644630491053
 30
0.0
  0
SEQEND
  5
81
330
7F
100
AcDbEntity
  8
_U+56FE_U+5C42 1
 62
     7
420
 16777215
370
    35
  0
POLYLINE
  5
82
330
1F
100
AcDbEntity
  8
_U+56FE_U+5C42 1
 62
     7
420
 16777215
370
     9
100
AcDb2dPolyline
 66
     1
 10
0.0
 20
0.0
 30
0.0
  0
VERTEX
  5
83
330
82
100
AcDbEntity
  8
_U+56FE_U+5C42 1
 62
     7
420
 16777215
370
     9
100
AcDbVertex
100
AcDb2dVertex
 10
104.0800198421577
 20
177.1644630491053
 30
0.0
  0
VERTEX
  5
84
330
82
100
AcDbEntity
  8
_U+56FE_U+5C42 1
 62
     7
420
 16777215
370
     9
100
AcDbVertex
100
AcDb2dVertex
 10
103.6688374699837
 20
176.3087311104267
 30
0.0
  0
SEQEND
  5
85
330
82
100
AcDbEntity
  8
_U+56FE_U+5C42 1
 62
     7
420
 16777215
370
     9
  0
SPLINE
  5
86
330
1F
100
AcDbEntity
  8
_U+56FE_U+5C42 1
 62
     7
420
 16777215
370
     9
100
AcDbSpline
210
0.0
220
0.0
230
1.0
 70
     8
 71
     3
 72
    17
 73
    13
 74
     0
 42
0.0000000001
 43
0.0000000001
 12
1.0
 22
0.0
 32
0.0
 13
1.0
 23
0.0
 33
0.0
 40
0.0
 40
0.0
 40
0.0
 40
0.0
 40
1.0
 40
1.0
 40
1.0
 40
2.0
 40
2.0
 40
2.0
 40
3.0
 40
3.0
 40
3.0
 40
4.0
 40
4.0
 40
4.0
 40
4.0
 10
95.11285735442107
 20
175.6137599891165
 30
0.0
 10
95.11285735442107
 20
175.6137599891165
 30
0.0
 10
95.08334465977633
 20
175.0267632672886
 30
0.0
 10
95.08334465977633
 20
175.0267632672886
 30
0.0
 10
95.08334465977633
 20
175.0267632672886
 30
0.0
 10
96.46470296221229
 20
173.5441136497599
 30
0.0
 10
99.79033181096331
 20
173.6714127427242
 30
0.0
 10
103.6018799760302
 20
173.5093565045797
 30
0.0
 10
105.0544003276878
 20
175.1730041799995
 30
0.0
 10
105.0544003276878
 20
175.1730041799995
 30
0.0
 10
105.0544003276878
 20
175.1730041799995
 30
0.0
 10
105.0923707920213
 20
176.1952204005928
 30
0.0
 10
105.0923707920213
 20
176.1952204005928
 30
0.0
  0
INSERT
  5
88
330
1F
100
AcDbEntity
  8
_U+56FE_U+5C42 1
100
AcDbBlockReference
  2
block 2
 10
0.0
 20
0.0
 30
0.0
  0
SPLINE
  5
96
330
1F
100
AcDbEntity
  8
_U+56FE_U+5C42 1
 62
     7
420
 16777215
370
     9
100
AcDbSpline
210
0.0
220
0.0
230
1.0
 70
     8
 71
     3
 72
     8
 73
     4
 74
     0
 42
0.0000000001
 43
0.0000000001
 12
1.0
 22
0.0
 32
0.0
 13
1.0
 23
0.0
 33
0.0
 40
0.0
 40
0.0
 40
0.0
 40
0.0
 40
1.0
 40
1.0
 40
1.0
 40
1.0
 10
97.07840088375599
 20
193.6032251018912
 30
0.0
 10
97.07840088375599
 20
193.6032251018912
 30
0.0
 10
98.84741857318421
 20
193.0699527871318
 30
0.0
 10
100.677183475124
 20
193.8357297039711
 30
0.0
  0
SPLINE
  5
97
330
1F
100
AcDbEntity
  8
_U+56FE_U+5C42 1
 62
     7
420
 16777215
370
     9
100
AcDbSpline
210
0.0
220
0.0
230
1.0
 70
     8
 71
     3
 72
     8
 73
     4
 74
     0
 42
0.0000000001
 43
0.0000000001
 12
1.0
 22
0.0
 32
0.0
 13
1.0
 23
0.0
 33
0.0
 40
0.0
 40
0.0
 40
0.0
 40
0.0
 40
1.0
 40
1.0
 40
1.0
 40
1.0
 10
97.1148619954454
 20
193.1186439264044
 30
0.0
 10
97.1148619954454
 20
193.1186439264044
 30
0.0
 10
98.88388227344328
 20
192.5853362580339
 30
0.0
 10
100.7132953907109
 20
193.3511572681848
 30
0.0
  0
SPLINE
  5
98
330
1F
100
AcDbEntity
  8
_U+56FE_U+5C42 1
 62
     7
420
 16777215
370
     9
100
AcDbSpline
210
0.0
220
0.0
230
1.0
 70
     8
 71
     3
 72
     8
 73
     4
 74
     0
 42
0.0000000001
 43
0.0000000001
 12
1.0
 22
0.0
 32
0.0
 13
1.0
 23
0.0
 33
0.0
 40
0.0
 40
0.0
 40
0.0
 40
0.0
 40
1.0
 40
1.0
 40
1.0
 40
1.0
 10
97.14836688804525
 20
192.6680845882336
 30
0.0
 10
97.14836688804525
 20
192.6680845882336
 30
0.0
 10
98.91738716604313
 20
192.1347769198635
 30
0.0
 10
100.7471873347155
 20
192.9005529540449
 30
0.0
  0
SPLINE
  5
99
330
1F
100
AcDbEntity
  8
_U+56FE_U+5C42 1
 62
     7
420
 16777215
370
     9
100
AcDbSpline
210
0.0
220
0.0
230
1.0
 70
     8
 71
     3
 72
     8
 73
     4
 74
     0
 42
0.0000000001
 43
0.0000000001
 12
1.0
 22
0.0
 32
0.0
 13
1.0
 23
0.0
 33
0.0
 40
0.0
 40
0.0
 40
0.0
 40
0.0
 40
1.0
 40
1.0
 40
1.0
 40
1.0
 10
97.18483147096198
 20
192.1835033258687
 30
0.0
 10
97.18483147096198
 20
192.1835033258687
 30
0.0
 10
98.9538517489605
 20
191.6501956574986
 30
0.0
 10
100.7833028158152
 20
192.4159804290207
 30
0.0
  0
SPLINE
  5
9A
330
1F
100
AcDbEntity
  8
_U+56FE_U+5C42 1
 62
     7
420
 16777215
370
     9
100
AcDbSpline
210
0.0
220
0.0
230
1.0
 70
     8
 71
     3
 72
     8
 73
     4
 74
     0
 42
0.0000000001
 43
0.0000000001
 12
1.0
 22
0.0
 32
0.0
 13
1.0
 23
0.0
 33
0.0
 40
0.0
 40
0.0
 40
0.0
 40
0.0
 40
1.0
 40
1.0
 40
1.0
 40
1.0
 10
97.21888635044128
 20
191.726719389533
 30
0.0
 10
97.21888635044128
 20
191.726719389533
 30
0.0
 10
98.98791456268715
 20
191.1935879667052
 30
0.0
 10
100.8177067971115
 20
191.9591877553442
 30
0.0
  0
SPLINE
  5
9B
330
1F
100
AcDbEntity
  8
_U+56FE_U+5C42 1
 62
     7
420
 16777215
370
     9
100
AcDbSpline
210
0.0
220
0.0
230
1.0
 70
     8
 71
     3
 72
     8
 73
     4
 74
     0
 42
0.0000000001
 43
0.0000000001
 12
1.0
 22
0.0
 32
0.0
 13
1.0
 23
0.0
 33
0.0
 40
0.0
 40
0.0
 40
0.0
 40
0.0
 40
1.0
 40
1.0
 40
1.0
 40
1.0
 10
97.25535093335866
 20
191.2421381271684
 30
0.0
 10
97.25535093335866
 20
191.2421381271684
 30
0.0
 10
99.02437562464553
 20
190.7090067924629
 30
0.0
 10
100.8538187126984
 20
191.474615319558
 30
0.0
  0
SPLINE
  5
9C
330
1F
100
AcDbEntity
  8
_U+56FE_U+5C42 1
 62
     7
420
 16777215
370
     9
100
AcDbSpline
210
0.0
220
0.0
230
1.0
 70
     8
 71
     3
 72
     8
 73
     4
 74
     0
 42
0.0000000001
 43
0.0000000001
 12
1.0
 22
0.0
 32
0.0
 13
1.0
 23
0.0
 33
0.0
 40
0.0
 40
0.0
 40
0.0
 40
0.0
 40
1.0
 40
1.0
 40
1.0
 40
1.0
 10
97.2883834733888
 20
190.7994953076888
 30
0.0
 10
97.2883834733888
 20
190.7994953076888
 30
0.0
 10
99.05740904733335
 20
190.2663992397165
 30
0.0
 10
100.8872047531836
 20
191.0319969611151
 30
0.0
  0
SPLINE
  5
9D
330
1F
100
AcDbEntity
  8
_U+56FE_U+5C42 1
 62
     7
420
 16777215
370
     9
100
AcDbSpline
210
0.0
220
0.0
230
1.0
 70
     8
 71
     3
 72
     8
 73
     4
 74
     0
 42
0.0000000001
 43
0.0000000001
 12
1.0
 22
0.0
 32
0.0
 13
1.0
 23
0.0
 33
0.0
 40
0.0
 40
0.0
 40
0.0
 40
0.0
 40
1.0
 40
1.0
 40
1.0
 40
1.0
 10
97.32484805630554
 20
190.3149140453243
 30
0.0
 10
97.32484805630554
 20
190.3149140453243
 30
0.0
 10
99.09387363025073
 20
189.7818179773517
 30
0.0
 10
100.9233167183036
 20
190.5474265044467
 30
0.0
  0
SPLINE
  5
9E
330
1F
100
AcDbEntity
  8
_U+56FE_U+5C42 1
 62
     7
420
 16777215
370
     9
100
AcDbSpline
210
0.0
220
0.0
230
1.0
 70
     8
 71
     3
 72
     8
 73
     4
 74
     0
 42
0.0000000001
 43
0.0000000001
 12
1.0
 22
0.0
 32
0.0
 13
1.0
 23
0.0
 33
0.0
 40
0.0
 40
0.0
 40
0.0
 40
0.0
 40
1.0
 40
1.0
 40
1.0
 40
1.0
 10
97.35838821563863
 20
189.8643538244955
 30
0.0
 10
97.35838821563863
 20
189.8643538244955
 30
0.0
 10
99.1274129069255
 20
189.3312224897903
 30
0.0
 10
100.9571742281102
 20
190.0968563370153
 30
0.0
  0
SPLINE
  5
9F
330
1F
100
AcDbEntity
  8
_U+56FE_U+5C42 1
 62
     7
420
 16777215
370
     9
100
AcDbSpline
210
0.0
220
0.0
230
1.0
 70
     8
 71
     3
 72
     8
 73
     4
 74
     0
 42
0.0000000001
 43
0.0000000001
 12
1.0
 22
0.0
 32
0.0
 13
1.0
 23
0.0
 33
0.0
 40
0.0
 40
0.0
 40
0.0
 40
0.0
 40
1.0
 40
1.0
 40
1.0
 40
1.0
 10
97.39485279855535
 20
189.379772562131
 30
0.0
 10
97.39485279855535
 20
189.379772562131
 30
0.0
 10
99.16384569905023
 20
188.8466399864334
 30
0.0
 10
100.9932861938209
 20
189.6122859039117
 30
0.0
  0
SPLINE
  5
A0
330
1F
100
AcDbEntity
  8
_U+56FE_U+5C42 1
 62
     7
420
 16777215
370
     9
100
AcDbSpline
210
0.0
220
0.0
230
1.0
 70
     8
 71
     3
 72
     8
 73
     4
 74
     0
 42
0.0000000001
 43
0.0000000001
 12
1.0
 22
0.0
 32
0.0
 13
1.0
 23
0.0
 33
0.0
 40
0.0
 40
0.0
 40
0.0
 40
0.0
 40
1.0
 40
1.0
 40
1.0
 40
1.0
 10
97.42891209132365
 20
188.9231649594604
 30
0.0
 10
97.42891209132365
 20
188.9231649594604
 30
0.0
 10
99.19793584612393
 20
188.3898551559003
 30
0.0
 10
101.02769374063
 20
189.155493140997
 30
0.0
  0
SPLINE
  5
A1
330
1F
100
AcDbEntity
  8
_U+56FE_U+5C42 1
 62
     7
420
 16777215
370
     9
100
AcDbSpline
210
0.0
220
0.0
230
1.0
 70
     8
 71
     3
 72
     8
 73
     4
 74
     0
 42
0.0000000001
 43
0.0000000001
 12
1.0
 22
0.0
 32
0.0
 13
1.0
 23
0.0
 33
0.0
 40
0.0
 40
0.0
 40
0.0
 40
0.0
 40
1.0
 40
1.0
 40
1.0
 40
1.0
 10
97.46537667424103
 20
188.4385836970955
 30
0.0
 10
97.46537667424103
 20
188.4385836970955
 30
0.0
 10
99.23436168550568
 20
187.9052769113828
 30
0.0
 10
101.0638056562169
 20
188.6709207052108
 30
0.0
  0
SPLINE
  5
A2
330
1F
100
AcDbEntity
  8
_U+56FE_U+5C42 1
 62
     7
420
 16777215
370
     9
100
AcDbSpline
210
0.0
220
0.0
230
1.0
 70
     8
 71
     3
 72
     8
 73
     4
 74
     0
 42
0.0000000001
 43
0.0000000001
 12
1.0
 22
0.0
 32
0.0
 13
1.0
 23
0.0
 33
0.0
 40
0.0
 40
0.0
 40
0.0
 40
0.0
 40
1.0
 40
1.0
 40
1.0
 40
1.0
 10
97.50077566747441
 20
187.9664154816697
 30
0.0
 10
97.50077566747441
 20
187.9664154816697
 30
0.0
 10
99.26976597468636
 20
187.4333202963551
 30
0.0
 10
101.0992090627393
 20
188.1989288234498
 30
0.0
  0
SPLINE
  5
A3
330
1F
100
AcDbEntity
  8
_U+56FE_U+5C42 1
 62
     7
420
 16777215
370
     9
100
AcDbSpline
210
0.0
220
0.0
230
1.0
 70
     8
 71
     3
 72
     8
 73
     4
 74
     0
 42
0.0000000001
 43
0.0000000001
 12
1.0
 22
0.0
 32
0.0
 13
1.0
 23
0.0
 33
0.0
 40
0.0
 40
0.0
 40
0.0
 40
0.0
 40
1.0
 40
1.0
 40
1.0
 40
1.0
 10
97.53688758306133
 20
187.4818430458835
 30
0.0
 10
97.53688758306133
 20
187.4818430458835
 30
0.0
 10
99.30591315700653
 20
186.9487469779112
 30
0.0
 10
101.1356772230357
 20
187.7143474715506
 30
0.0
  0
SPLINE
  5
A4
330
1F
100
AcDbEntity
  8
_U+56FE_U+5C42 1
 62
     7
420
 16777215
370
     9
100
AcDbSpline
210
0.0
220
0.0
230
1.0
 70
     8
 71
     3
 72
     8
 73
     4
 74
     0
 42
0.0000000001
 43
0.0000000001
 12
1.0
 22
0.0
 32
0.0
 13
1.0
 23
0.0
 33
0.0
 40
0.0
 40
0.0
 40
0.0
 40
0.0
 40
1.0
 40
1.0
 40
1.0
 40
1.0
 10
97.57074514299099
 20
187.0312748811344
 30
0.0
 10
97.57074514299099
 20
187.0312748811344
 30
0.0
 10
99.33977071693617
 20
186.4981788131618
 30
0.0
 10
101.1692173835001
 20
187.2637872506936
 30
0.0
  0
SPLINE
  5
A5
330
1F
100
AcDbEntity
  8
_U+56FE_U+5C42 1
 62
     7
420
 16777215
370
     9
100
AcDbSpline
210
0.0
220
0.0
230
1.0
 70
     8
 71
     3
 72
     8
 73
     4
 74
     0
 42
0.0000000001
 43
0.0000000001
 12
1.0
 22
0.0
 32
0.0
 13
1.0
 23
0.0
 33
0.0
 40
0.0
 40
0.0
 40
0.0
 40
0.0
 40
1.0
 40
1.0
 40
1.0
 40
1.0
 10
97.60686054760596
 20
186.5467023580241
 30
0.0
 10
97.60686054760596
 20
186.5467023580241
 30
0.0
 10
99.3758826325231
 20
186.0136063773755
 30
0.0
 10
101.2056783879064
 20
186.7792060778923
 30
0.0
  0
SPLINE
  5
A6
330
1F
100
AcDbEntity
  8
_U+56FE_U+5C42 1
 62
     7
420
 16777215
370
     9
100
AcDbSpline
210
0.0
220
0.0
230
1.0
 70
     8
 71
     3
 72
     8
 73
     4
 74
     0
 42
0.0000000001
 43
0.0000000001
 12
1.0
 22
0.0
 32
0.0
 13
1.0
 23
0.0
 33
0.0
 40
0.0
 40
0.0
 40
0.0
 40
0.0
 40
1.0
 40
1.0
 40
1.0
 40
1.0
 10
97.64126901867667
 20
186.090086016099
 30
0.0
 10
97.64126901867667
 20
186.090086016099
 30
0.0
 10
99.41029017933221
 20
185.5568136144615
 30
0.0
 10
101.2397332673851
 20
186.3224221415566
 30
0.0
  0
SPLINE
  5
A7
330
1F
100
AcDbEntity
  8
_U+56FE_U+5C42 1
 62
     7
420
 16777215
370
     9
100
AcDbSpline
210
0.0
220
0.0
230
1.0
 70
     8
 71
     3
 72
     8
 73
     4
 74
     0
 42
0.0000000001
 43
0.0000000001
 12
1.0
 22
0.0
 32
0.0
 13
1.0
 23
0.0
 33
0.0
 40
0.0
 40
0.0
 40
0.0
 40
0.0
 40
1.0
 40
1.0
 40
1.0
 40
1.0
 10
97.67738088125026
 20
185.6055114621678
 30
0.0
 10
97.67738088125026
 20
185.6055114621678
 30
0.0
 10
99.44640209491914
 20
185.0722411786746
 30
0.0
 10
101.2761978503025
 20
185.8378408791916
 30
0.0
  0
SPLINE
  5
A8
330
1F
100
AcDbEntity
  8
_U+56FE_U+5C42 1
 62
     7
420
 16777215
370
     9
100
AcDbSpline
210
0.0
220
0.0
230
1.0
 70
     8
 71
     3
 72
     8
 73
     4
 74
     0
 42
0.0000000001
 43
0.0000000001
 12
1.0
 22
0.0
 32
0.0
 13
1.0
 23
0.0
 33
0.0
 40
0.0
 40
0.0
 40
0.0
 40
0.0
 40
1.0
 40
1.0
 40
1.0
 40
1.0
 10
97.712291687086
 20
185.140627082384
 30
0.0
 10
97.712291687086
 20
185.140627082384
 30
0.0
 10
99.48127669835128
 20
184.6073202966715
 30
0.0
 10
101.3110768670236
 20
185.3730963308529
 30
0.0
  0
SPLINE
  5
A9
330
1F
100
AcDbEntity
  8
_U+56FE_U+5C42 1
 62
     7
420
 16777215
370
     9
100
AcDbSpline
210
0.0
220
0.0
230
1.0
 70
     8
 71
     3
 72
     8
 73
     4
 74
     0
 42
0.0000000001
 43
0.0000000001
 12
1.0
 22
0.0
 32
0.0
 13
1.0
 23
0.0
 33
0.0
 40
0.0
 40
0.0
 40
0.0
 40
0.0
 40
1.0
 40
1.0
 40
1.0
 40
1.0
 10
97.74875627000273
 20
184.6560458200191
 30
0.0
 10
97.74875627000273
 20
184.6560458200191
 30
0.0
 10
99.51774128126802
 20
184.1227390343066
 30
0.0
 10
101.3471887826106
 20
184.8885238950666
 30
0.0
  0
SPLINE
  5
AA
330
1F
100
AcDbEntity
  8
_U+56FE_U+5C42 1
 62
     7
420
 16777215
370
     9
100
AcDbSpline
210
0.0
220
0.0
230
1.0
 70
     8
 71
     3
 72
     8
 73
     4
 74
     0
 42
0.0000000001
 43
0.0000000001
 12
1.0
 22
0.0
 32
0.0
 13
1.0
 23
0.0
 33
0.0
 40
0.0
 40
0.0
 40
0.0
 40
0.0
 40
1.0
 40
1.0
 40
1.0
 40
1.0
 10
97.78178881003288
 20
184.2134030005398
 30
0.0
 10
97.78178881003288
 20
184.2134030005398
 30
0.0
 10
99.55077470395584
 20
183.6801314815603
 30
0.0
 10
101.3805704593392
 20
184.4457311820767
 30
0.0
  0
SPLINE
  5
AB
330
1F
100
AcDbEntity
  8
_U+56FE_U+5C42 1
 62
     7
420
 16777215
370
     9
100
AcDbSpline
210
0.0
220
0.0
230
1.0
 70
     8
 71
     3
 72
     8
 73
     4
 74
     0
 42
0.0000000001
 43
0.0000000001
 12
1.0
 22
0.0
 32
0.0
 13
1.0
 23
0.0
 33
0.0
 40
0.0
 40
0.0
 40
0.0
 40
0.0
 40
1.0
 40
1.0
 40
1.0
 40
1.0
 10
97.81790072561981
 20
183.7288305647536
 30
0.0
 10
97.81790072561981
 20
183.7288305647536
 30
0.0
 10
99.58692188627631
 20
183.195558163116
 30
0.0
 10
101.4166823749261
 20
183.9611587462905
 30
0.0
  0
SPLINE
  5
AC
330
1F
100
AcDbEntity
  8
_U+56FE_U+5C42 1
 62
     7
420
 16777215
370
     9
100
AcDbSpline
210
0.0
220
0.0
230
1.0
 70
     8
 71
     3
 72
     8
 73
     4
 74
     0
 42
0.0000000001
 43
0.0000000001
 12
1.0
 22
0.0
 32
0.0
 13
1.0
 23
0.0
 33
0.0
 40
0.0
 40
0.0
 40
0.0
 40
0.0
 40
1.0
 40
1.0
 40
1.0
 40
1.0
 10
97.85175828554945
 20
183.2782624000048
 30
0.0
 10
97.85175828554945
 20
183.2782624000048
 30
0.0
 10
99.62077856354799
 20
182.7449547316337
 30
0.0
 10
101.4505399348558
 20
183.5105905815414
 30
0.0
  0
SPLINE
  5
AD
330
1F
100
AcDbEntity
  8
_U+56FE_U+5C42 1
 62
     7
420
 16777215
370
     9
100
AcDbSpline
210
0.0
220
0.0
230
1.0
 70
     8
 71
     3
 72
     8
 73
     4
 74
     0
 42
0.0000000001
 43
0.0000000001
 12
1.0
 22
0.0
 32
0.0
 13
1.0
 23
0.0
 33
0.0
 40
0.0
 40
0.0
 40
0.0
 40
0.0
 40
1.0
 40
1.0
 40
1.0
 40
1.0
 10
97.88822286846683
 20
182.7936811376396
 30
0.0
 10
97.88822286846683
 20
182.7936811376396
 30
0.0
 10
99.65724314646471
 20
182.2603734692692
 30
0.0
 10
101.4866906478073
 20
183.0261583300295
 30
0.0
  0
SPLINE
  5
AE
330
1F
100
AcDbEntity
  8
_U+56FE_U+5C42 1
 62
     7
420
 16777215
370
     9
100
AcDbSpline
210
0.0
220
0.0
230
1.0
 70
     8
 71
     3
 72
     8
 73
     4
 74
     0
 42
0.0000000001
 43
0.0000000001
 12
1.0
 22
0.0
 32
0.0
 13
1.0
 23
0.0
 33
0.0
 40
0.0
 40
0.0
 40
0.0
 40
0.0
 40
1.0
 40
1.0
 40
1.0
 40
1.0
 10
97.92227774794614
 20
182.3368972013039
 30
0.0
 10
97.92227774794614
 20
182.3368972013039
 30
0.0
 10
99.69130243923365
 20
181.8037658665986
 30
0.0
 10
101.5210665182438
 20
182.5693663599131
 30
0.0
  0
SPLINE
  5
AF
330
1F
100
AcDbEntity
  8
_U+56FE_U+5C42 1
 62
     7
420
 16777215
370
     9
100
AcDbSpline
210
0.0
220
0.0
230
1.0
 70
     8
 71
     3
 72
     8
 73
     4
 74
     0
 42
0.0000000001
 43
0.0000000001
 12
1.0
 22
0.0
 32
0.0
 13
1.0
 23
0.0
 33
0.0
 40
0.0
 40
0.0
 40
0.0
 40
0.0
 40
1.0
 40
1.0
 40
1.0
 40
1.0
 10
97.95838966353307
 20
181.8523247655173
 30
0.0
 10
97.95838966353307
 20
181.8523247655173
 30
0.0
 10
99.72776696646118
 20
181.3191823791703
 30
0.0
 10
101.5572101102033
 20
182.0847931313285
 30
0.0
  0
SPLINE
  5
B0
330
1F
100
AcDbEntity
  8
_U+56FE_U+5C42 1
 62
     7
420
 16777215
370
     9
100
AcDbSpline
210
0.0
220
0.0
230
1.0
 70
     8
 71
     3
 72
     8
 73
     4
 74
     0
 42
0.0000000001
 43
0.0000000001
 12
1.0
 22
0.0
 32
0.0
 13
1.0
 23
0.0
 33
0.0
 40
0.0
 40
0.0
 40
0.0
 40
0.0
 40
1.0
 40
1.0
 40
1.0
 40
1.0
 10
97.99379307005609
 20
181.380332883757
 30
0.0
 10
97.99379307005609
 20
181.380332883757
 30
0.0
 10
99.76281423071163
 20
180.8470604821195
 30
0.0
 10
101.592609986095
 20
181.6126601826359
 30
0.0
  0
SPLINE
  5
B1
330
1F
100
AcDbEntity
  8
_U+56FE_U+5C42 1
 62
     7
420
 16777215
370
     9
100
AcDbSpline
210
0.0
220
0.0
230
1.0
 70
     8
 71
     3
 72
     8
 73
     4
 74
     0
 42
0.0000000001
 43
0.0000000001
 12
1.0
 22
0.0
 32
0.0
 13
1.0
 23
0.0
 33
0.0
 40
0.0
 40
0.0
 40
0.0
 40
0.0
 40
1.0
 40
1.0
 40
1.0
 40
1.0
 10
98.03025765297281
 20
180.8957516213921
 30
0.0
 10
98.03025765297281
 20
180.8957516213921
 30
0.0
 10
99.7992787573366
 20
180.3624769705831
 30
0.0
 10
101.6290789823014
 20
181.1282552539359
 30
0.0
  0
SPLINE
  5
B2
330
1F
100
AcDbEntity
  8
_U+56FE_U+5C42 1
 62
     7
420
 16777215
370
     9
100
AcDbSpline
210
0.0
220
0.0
230
1.0
 70
     8
 71
     3
 72
     8
 73
     4
 74
     0
 42
0.0000000001
 43
0.0000000001
 12
1.0
 22
0.0
 32
0.0
 13
1.0
 23
0.0
 33
0.0
 40
0.0
 40
0.0
 40
0.0
 40
0.0
 40
1.0
 40
1.0
 40
1.0
 40
1.0
 10
98.06411521290246
 20
180.4451834566431
 30
0.0
 10
98.06411521290246
 20
180.4451834566431
 30
0.0
 10
99.83313637355866
 20
179.9119110550058
 30
0.0
 10
101.6625838749006
 20
180.6776959157655
 30
0.0
  0
SPLINE
  5
B3
330
1F
100
AcDbEntity
  8
_U+56FE_U+5C42 1
 62
     7
420
 16777215
370
     9
100
AcDbSpline
210
0.0
220
0.0
230
1.0
 70
     8
 71
     3
 72
     8
 73
     4
 74
     0
 42
0.0000000001
 43
0.0000000001
 12
1.0
 22
0.0
 32
0.0
 13
1.0
 23
0.0
 33
0.0
 40
0.0
 40
0.0
 40
0.0
 40
0.0
 40
1.0
 40
1.0
 40
1.0
 40
1.0
 10
98.10026239522263
 20
179.9606101381988
 30
0.0
 10
98.10026239522263
 20
179.9606101381988
 30
0.0
 10
99.86925095713158
 20
179.4273032636203
 30
0.0
 10
101.6990484578179
 20
180.1931146534013
 30
0.0
  0
SPLINE
  5
B4
330
1F
100
AcDbEntity
  8
_U+56FE_U+5C42 1
 62
     7
420
 16777215
370
     9
100
AcDbSpline
210
0.0
220
0.0
230
1.0
 70
     8
 71
     3
 72
     8
 73
     4
 74
     0
 42
0.0000000001
 43
0.0000000001
 12
1.0
 22
0.0
 32
0.0
 13
1.0
 23
0.0
 33
0.0
 40
0.0
 40
0.0
 40
0.0
 40
0.0
 40
1.0
 40
1.0
 40
1.0
 40
1.0
 10
98.1346346752985
 20
179.5038182579424
 30
0.0
 10
98.1346346752985
 20
179.5038182579424
 30
0.0
 10
99.90365936658603
 20
178.9706869232372
 30
0.0
 10
101.7331033372972
 20
179.7363307170652
 30
0.0
  0
SPLINE
  5
B5
330
1F
100
AcDbEntity
  8
_U+56FE_U+5C42 1
 62
     7
420
 16777215
370
     9
100
AcDbSpline
210
0.0
220
0.0
230
1.0
 70
     8
 71
     3
 72
     8
 73
     4
 74
     0
 42
0.0000000001
 43
0.0000000001
 12
1.0
 22
0.0
 32
0.0
 13
1.0
 23
0.0
 33
0.0
 40
0.0
 40
0.0
 40
0.0
 40
0.0
 40
1.0
 40
1.0
 40
1.0
 40
1.0
 10
98.17078185761866
 20
179.0192449394982
 30
0.0
 10
98.17078185761866
 20
179.0192449394982
 30
0.0
 10
99.93977128217294
 20
178.4861144874506
 30
0.0
 10
101.769567920214
 20
179.2517494547
 30
0.0
  0
SPLINE
  5
B6
330
1F
100
AcDbEntity
  8
_U+56FE_U+5C42 1
 62
     7
420
 16777215
370
     9
100
AcDbSpline
210
0.0
220
0.0
230
1.0
 70
     8
 71
     3
 72
    11
 73
     7
 74
     0
 42
0.0000000001
 43
0.0000000001
 12
1.0
 22
0.0
 32
0.0
 13
1.0
 23
0.0
 33
0.0
 40
0.0
 40
0.0
 40
0.0
 40
0.0
 40
1.0
 40
1.0
 40
1.0
 40
2.0
 40
2.0
 40
2.0
 40
2.0
 10
96.8725628521539
 20
194.1645992753645
 30
0.0
 10
96.8725628521539
 20
194.1645992753645
 30
0.0
 10
96.97790323000031
 20
193.9250336444942
 30
0.0
 10
98.8597171633721
 20
193.9885659598058
 30
0.0
 10
100.7418828814167
 20
194.0520541818052
 30
0.0
 10
100.7290340547483
 20
194.4199088671645
 30
0.0
 10
100.7290340547483
 20
194.4199088671645
 30
0.0
  0
INSERT
  5
B8
330
1F
100
AcDbEntity
  8
_U+56FE_U+5C42 1
100
AcDbBlockReference
  2
block 5
 10
0.0
 20
0.0
 30
0.0
  0
MTEXT
  5
D4
330
1F
100
AcDbEntity
  8
callouit
 62
   250
420
  2301728
100
AcDbMText
 10
77.07145841579073
 20
114.5418604776342
 30
0.0
 40
2.9971999992507
 41
0.0
 46
0.0
 71
     7
 72
     1
  1
\fHelvetica Neue LT Std 55 Roman|b0|i0|c0|p34;\W1;SIMPSON Strong-Tie\H1.74737;®\H2.9972; ^C
 73
     1
 44
1.0
  0
MTEXT
  5
D5
330
1F
100
AcDbEntity
  8
callouit
 62
   250
420
  2301728
100
AcDbMText
 10
62.46132522716896
 20
109.4617226750848
 30
0.0
 40
2.9971999992507
 41
0.0
 46
0.0
 71
     7
 72
     1
  1
\fHelvetica Neue LT Std 55 Roman|b0|i0|c0|p34;\W1;WBT Installation with CS Coiled Strap
 73
     1
 44
1.0
  0
MTEXT
  5
D6
330
1F
100
AcDbEntity
  8
callouit
 62
   250
420
  2301728
100
AcDbMText
 10
59.26132406236702
 20
185.9094351144774
 30
0.0
 40
2.9971999992507
 41
0.0
 46
0.0
 71
     7
 72
     1
  1
\fHelvetica Neue LT Std 57 Condensed|b0|i0|c0|p34;\W1;WBT
 73
     1
 44
1.0
  0
INSERT
  5
D8
330
1F
100
AcDbEntity
  8
callouit
100
AcDbBlockReference
  2
block 7
 10
0.0
 20
0.0
 30
0.0
  0
MTEXT
  5
E3
330
1F
100
AcDbEntity
  8
callouit
 62
   250
420
  2301728
100
AcDbMText
 10
145.3265029967766
 20
161.0599660894619
 30
0.0
 40
2.9971999992507
 41
0.0
 46
0.0
 71
     7
 72
     1
  1
\fHelvetica Neue LT Std 57 Condensed|b0|i0|c0|p34;\W1;CS Coiled Strap
 73
     1
 44
1.0
  0
INSERT
  5
E5
330
1F
100
AcDbEntity
  8
callouit
100
AcDbBlockReference
  2
block 8
 10
0.0
 20
0.0
 30
0.0
  0
ENDSEC
  0
SECTION
  2
OBJECTS
  0
DICTIONARY
  5
C
330
0
100
AcDbDictionary
281
     1
  3
ACAD_GROUP
350
D
  3
ACAD_LAYOUT
350
1A
  3
ACAD_MATERIAL
350
3B
  3
ACAD_MLEADERSTYLE
350
F4
  3
ACAD_MLINESTYLE
350
17
  3
ACAD_PLOTSETTINGS
350
19
  3
ACAD_PLOTSTYLENAME
350
E
  3
ACAD_TABLESTYLE
350
F3
  3
ACAD_VISUALSTYLE
350
2A
  0
SUN
  5
3F
330
29
100
AcDbSun
 90
        1
290
     0
 63
     7
421
 16777215
 40
1.0
291
     1
 91
  2455826
 92
 54000000
292
     0
 70
     2
 71
   256
280
     1
  0
DICTIONARY
  5
D
102
{ACAD_REACTORS
330
C
102
}
330
C
100
AcDbDictionary
281
     1
  0
DICTIONARY
  5
1A
102
{ACAD_REACTORS
330
C
102
}
330
C
100
AcDbDictionary
281
     1
  3
Layout1
350
1E
  3
Layout2
350
26
  3
Model
350
22
  0
DICTIONARY
  5
3B
102
{ACAD_REACTORS
330
C
102
}
330
C
100
AcDbDictionary
281
     1
  3
ByBlock
350
3D
  3
ByLayer
350
3C
  3
Global
350
3E
  0
DICTIONARY
  5
F4
102
{ACAD_REACTORS
330
C
102
}
330
C
100
AcDbDictionary
281
     1
  0
DICTIONARY
  5
17
102
{ACAD_REACTORS
330
C
102
}
330
C
100
AcDbDictionary
281
     1
  3
Standard
350
18
  0
DICTIONARY
  5
19
102
{ACAD_REACTORS
330
C
102
}
330
C
100
AcDbDictionary
281
     1
  0
ACDBDICTIONARYWDFLT
  5
E
102
{ACAD_REACTORS
330
C
102
}
330
C
100
AcDbDictionary
281
     1
  3
Normal
350
F
100
AcDbDictionaryWithDefault
340
F
  0
DICTIONARY
  5
F3
102
{ACAD_REACTORS
330
C
102
}
330
C
100
AcDbDictionary
281
     1
  0
DICTIONARY
  5
2A
102
{ACAD_REACTORS
330
C
102
}
330
C
100
AcDbDictionary
281
     1
  3
2dWireframe
350
2F
  3
3D Hidden
350
31
  3
3dWireframe
350
30
  3
Basic
350
32
  3
Brighten
350
36
  3
ColorChange
350
3A
  3
Conceptual
350
34
  3
Dim
350
35
  3
Facepattern
350
39
  3
Flat
350
2B
  3
FlatWithEdges
350
2C
  3
Gouraud
350
2D
  3
GouraudWithEdges
350
2E
  3
Linepattern
350
38
  3
Realistic
350
33
  3
Thicken
350
37
  0
LAYOUT
  5
1E
102
{ACAD_REACTORS
330
1A
102
}
330
1A
100
AcDbPlotSettings
  1

  2
none_device
  4

  6

 40
0.0
 41
0.0
 42
0.0
 43
0.0
 44
0.0
 45
0.0
 46
0.0
 47
0.0
 48
0.0
 49
0.0
140
0.0
141
0.0
142
1.0
143
1.0
 70
   688
 72
     0
 73
     0
 74
     5
  7

 75
    16
 76
     0
 77
     2
 78
   300
147
1.0
148
0.0
149
0.0
100
AcDbLayout
  1
Layout1
 70
     1
 71
     1
 10
0.0
 20
0.0
 11
12.0
 21
9.0
 12
0.0
 22
0.0
 32
0.0
 14
1.000000000000000E+20
 24
1.000000000000000E+20
 34
1.000000000000000E+20
 15
-1.000000000000000E+20
 25
-1.000000000000000E+20
 35
-1.000000000000000E+20
146
0.0
 13
0.0
 23
0.0
 33
0.0
 16
1.0
 26
0.0
 36
0.0
 17
0.0
 27
1.0
 37
0.0
 76
     0
330
1B
  0
LAYOUT
  5
26
102
{ACAD_REACTORS
330
1A
102
}
330
1A
100
AcDbPlotSettings
  1

  2
none_device
  4

  6

 40
0.0
 41
0.0
 42
0.0
 43
0.0
 44
0.0
 45
0.0
 46
0.0
 47
0.0
 48
0.0
 49
0.0
140
0.0
141
0.0
142
1.0
143
1.0
 70
   688
 72
     0
 73
     0
 74
     5
  7

 75
    16
 76
     0
 77
     2
 78
   300
147
1.0
148
0.0
149
0.0
100
AcDbLayout
  1
Layout2
 70
     1
 71
     2
 10
0.0
 20
0.0
 11
0.0
 21
0.0
 12
0.0
 22
0.0
 32
0.0
 14
0.0
 24
0.0
 34
0.0
 15
0.0
 25
0.0
 35
0.0
146
0.0
 13
0.0
 23
0.0
 33
0.0
 16
1.0
 26
0.0
 36
0.0
 17
0.0
 27
1.0
 37
0.0
 76
     0
330
23
  0
LAYOUT
  5
22
102
{ACAD_REACTORS
330
1A
102
}
330
1A
100
AcDbPlotSettings
  1

  2
none_device
  4

  6

 40
0.0
 41
0.0
 42
0.0
 43
0.0
 44
0.0
 45
0.0
 46
0.0
 47
0.0
 48
0.0
 49
0.0
140
0.0
141
0.0
142
1.0
143
1.0
 70
  1712
 72
     0
 73
     0
 74
     0
  7

 75
     0
 76
     0
 77
     2
 78
   300
147
1.0
148
0.0
149
0.0
100
AcDbLayout
  1
Model
 70
     1
 71
     0
 10
0.0
 20
0.0
 11
12.0
 21
9.0
 12
0.0
 22
0.0
 32
0.0
 14
1.000000000000000E+20
 24
1.000000000000000E+20
 34
1.000000000000000E+20
 15
-1.000000000000000E+20
 25
-1.000000000000000E+20
 35
-1.000000000000000E+20
146
0.0
 13
0.0
 23
0.0
 33
0.0
 16
1.0
 26
0.0
 36
0.0
 17
0.0
 27
1.0
 37
0.0
 76
     0
330
1F
331
29
  0
MATERIAL
  5
3D
102
{ACAD_REACTORS
330
3B
102
}
330
3B
100
AcDbMaterial
  1
ByBlock
 72
     1
 94
      127
  0
MATERIAL
  5
3C
102
{ACAD_REACTORS
330
3B
102
}
330
3B
100
AcDbMaterial
  1
ByLayer
 72
     1
 94
      127
  0
MATERIAL
  5
3E
102
{ACAD_REACTORS
330
3B
102
}
330
3B
100
AcDbMaterial
  1
Global
 72
     1
 94
      127
  0
MLINESTYLE
  5
18
102
{ACAD_REACTORS
330
17
102
}
330
17
100
AcDbMlineStyle
  2
Standard
 70
     0
  3

 62
   256
 51
90.0
 52
90.0
 71
     2
 49
0.5
 62
   256
  6
BYLAYER
 49
-0.5
 62
   256
  6
BYLAYER
  0
ACDBPLACEHOLDER
  5
F
102
{ACAD_REACTORS
330
E
102
}
330
E
  0
VISUALSTYLE
  5
2F
102
{ACAD_REACTORS
330
2A
102
}
330
2A
100
AcDbVisualStyle
  2
2dWireframe
 70
     4
177
     2
291
     0
 71
     0
176
     1
 72
     2
176
     1
 73
     0
176
     1
 90
        0
176
     1
 40
-0.6
176
     1
 41
-30.0
176
     1
 62
     5
 63
     7
421
 16777215
176
     1
 74
     1
176
     1
 91
        4
176
     1
 64
     7
176
     1
 65
   257
176
     1
 75
     1
176
     1
175
     1
176
     1
 42
1.0
176
     1
 92
        0
176
     1
 66
   257
176
     1
 43
1.0
176
     1
 76
     1
176
     1
 77
     6
176
     1
 78
     2
176
     1
 67
     7
176
     1
 79
     5
176
     1
170
     0
176
     1
171
     0
176
     1
290
     0
176
     1
 93
        1
176
     1
 44
0.0
176
     1
173
     0
176
     1
  0
VISUALSTYLE
  5
31
102
{ACAD_REACTORS
330
2A
102
}
330
2A
100
AcDbVisualStyle
  2
3D Hidden
 70
     6
177
     2
291
     0
 71
     1
176
     1
 72
     2
176
     1
 73
     2
176
     1
 90
        0
176
     1
 40
-0.6
176
     1
 41
-30.0
176
     1
 62
     5
 63
     7
421
 16777215
176
     1
 74
     2
176
     1
 91
        2
176
     1
 64
     7
176
     1
 65
   257
176
     1
 75
     2
176
     1
175
     1
176
     1
 42
40.0
176
     1
 92
        0
176
     1
 66
   257
176
     1
 43
1.0
176
     1
 76
     1
176
     1
 77
     6
176
     1
 78
     2
176
     1
 67
     7
176
     1
 79
     3
176
     1
170
     0
176
     1
171
     0
176
     1
290
     0
176
     1
 93
        1
176
     1
 44
0.0
176
     1
173
     0
176
     1
  0
VISUALSTYLE
  5
30
102
{ACAD_REACTORS
330
2A
102
}
330
2A
100
AcDbVisualStyle
  2
3dWireframe
 70
     5
177
     2
291
     0
 71
     0
176
     1
 72
     2
176
     1
 73
     0
176
     1
 90
        0
176
     1
 40
-0.6
176
     1
 41
-30.0
176
     1
 62
     5
 63
     7
421
 16777215
176
     1
 74
     1
176
     1
 91
        4
176
     1
 64
     7
176
     1
 65
   257
176
     1
 75
     1
176
     1
175
     1
176
     1
 42
1.0
176
     1
 92
        0
176
     1
 66
   257
176
     1
 43
1.0
176
     1
 76
     1
176
     1
 77
     6
176
     1
 78
     2
176
     1
 67
     7
176
     1
 79
     5
176
     1
170
     0
176
     1
171
     0
176
     1
290
     0
176
     1
 93
        1
176
     1
 44
0.0
176
     1
173
     0
176
     1
  0
VISUALSTYLE
  5
32
102
{ACAD_REACTORS
330
2A
102
}
330
2A
100
AcDbVisualStyle
  2
Basic
 70
     7
177
     2
291
     1
 71
     1
176
     1
 72
     0
176
     1
 73
     1
176
     1
 90
        0
176
     1
 40
-0.6
176
     1
 41
-30.0
176
     1
 62
     5
 63
     7
421
 16777215
176
     1
 74
     0
176
     1
 91
        4
176
     1
 64
     7
176
     1
 65
   257
176
     1
 75
     1
176
     1
175
     1
176
     1
 42
1.0
176
     1
 92
        8
176
     1
 66
     7
176
     1
 43
1.0
176
     1
 76
     1
176
     1
 77
     6
176
     1
 78
     2
176
     1
 67
     7
176
     1
 79
     5
176
     1
170
     0
176
     1
171
     0
176
     1
290
     0
176
     1
 93
        1
176
     1
 44
0.0
176
     1
173
     0
176
     1
  0
VISUALSTYLE
  5
36
102
{ACAD_REACTORS
330
2A
102
}
330
2A
100
AcDbVisualStyle
  2
Brighten
 70
    12
177
     2
291
     1
 71
     2
176
     1
 72
     2
176
     1
 73
     0
176
     1
 90
        0
176
     1
 40
-0.6
176
     1
 41
-30.0
176
     1
 62
     5
 63
     7
421
 16777215
176
     1
 74
     1
176
     1
 91
        4
176
     1
 64
     7
176
     1
 65
   257
176
     1
 75
     1
176
     1
175
     1
176
     1
 42
1.0
176
     1
 92
        8
176
     1
 66
     7
176
     1
 43
1.0
176
     1
 76
     1
176
     1
 77
     6
176
     1
 78
     2
176
     1
 67
     7
176
     1
 79
     5
176
     1
170
     0
176
     1
171
     0
176
     1
290
     0
176
     1
 93
        1
176
     1
 44
50.0
176
     1
173
     0
176
     1
  0
VISUALSTYLE
  5
3A
102
{ACAD_REACTORS
330
2A
102
}
330
2A
100
AcDbVisualStyle
  2
ColorChange
 70
    16
177
     2
291
     1
 71
     2
176
     1
 72
     2
176
     1
 73
     3
176
     1
 90
        0
176
     1
 40
-0.6
176
     1
 41
-30.0
176
     1
 62
     5
 63
     8
421
  8421504
176
     1
 74
     1
176
     1
 91
        4
176
     1
 64
     7
176
     1
 65
   257
176
     1
 75
     1
176
     1
175
     1
176
     1
 42
1.0
176
     1
 92
        8
176
     1
 66
     8
424
  8421504
176
     1
 43
1.0
176
     1
 76
     1
176
     1
 77
     6
176
     1
 78
     2
176
     1
 67
     7
176
     1
 79
     5
176
     1
170
     0
176
     1
171
     0
176
     1
290
     0
176
     1
 93
        1
176
     1
 44
0.0
176
     1
173
     0
176
     1
  0
VISUALSTYLE
  5
34
102
{ACAD_REACTORS
330
2A
102
}
330
2A
100
AcDbVisualStyle
  2
Conceptual
 70
     9
177
     2
291
     0
 71
     3
176
     1
 72
     2
176
     1
 73
     0
176
     1
 90
        0
176
     1
 40
-0.6
176
     1
 41
-30.0
176
     1
 62
     5
 63
     7
421
 16777215
176
     1
 74
     2
176
     1
 91
        2
176
     1
 64
     7
176
     1
 65
   257
176
     1
 75
     1
176
     1
175
     1
176
     1
 42
40.0
176
     1
 92
        8
176
     1
 66
     7
176
     1
 43
1.0
176
     1
 76
     1
176
     1
 77
     6
176
     1
 78
     2
176
     1
 67
     7
176
     1
 79
     3
176
     1
170
     0
176
     1
171
     0
176
     1
290
     0
176
     1
 93
        1
176
     1
 44
0.0
176
     1
173
     0
176
     1
  0
VISUALSTYLE
  5
35
102
{ACAD_REACTORS
330
2A
102
}
330
2A
100
AcDbVisualStyle
  2
Dim
 70
    11
177
     2
291
     1
 71
     2
176
     1
 72
     2
176
     1
 73
     0
176
     1
 90
        0
176
     1
 40
-0.6
176
     1
 41
-30.0
176
     1
 62
     5
 63
     7
421
 16777215
176
     1
 74
     1
176
     1
 91
        4
176
     1
 64
     7
176
     1
 65
   257
176
     1
 75
     1
176
     1
175
     1
176
     1
 42
1.0
176
     1
 92
        8
176
     1
 66
     7
176
     1
 43
1.0
176
     1
 76
     1
176
     1
 77
     6
176
     1
 78
     2
176
     1
 67
     7
176
     1
 79
     5
176
     1
170
     0
176
     1
171
     0
176
     1
290
     0
176
     1
 93
        1
176
     1
 44
-50.0
176
     1
173
     0
176
     1
  0
VISUALSTYLE
  5
39
102
{ACAD_REACTORS
330
2A
102
}
330
2A
100
AcDbVisualStyle
  2
Facepattern
 70
    15
177
     2
291
     1
 71
     2
176
     1
 72
     2
176
     1
 73
     0
176
     1
 90
        0
176
     1
 40
-0.6
176
     1
 41
-30.0
176
     1
 62
     5
 63
     7
421
 16777215
176
     1
 74
     1
176
     1
 91
        4
176
     1
 64
     7
176
     1
 65
   257
176
     1
 75
     1
176
     1
175
     1
176
     1
 42
1.0
176
     1
 92
        8
176
     1
 66
     7
176
     1
 43
1.0
176
     1
 76
     1
176
     1
 77
     6
176
     1
 78
     2
176
     1
 67
     7
176
     1
 79
     5
176
     1
170
     0
176
     1
171
     0
176
     1
290
     0
176
     1
 93
        1
176
     1
 44
0.0
176
     1
173
     0
176
     1
  0
VISUALSTYLE
  5
2B
102
{ACAD_REACTORS
330
2A
102
}
330
2A
100
AcDbVisualStyle
  2
Flat
 70
     0
177
     2
291
     1
 71
     2
176
     1
 72
     1
176
     1
 73
     1
176
     1
 90
        2
176
     1
 40
-0.6
176
     1
 41
30.0
176
     1
 62
     5
 63
     7
421
 16777215
176
     1
 74
     0
176
     1
 91
        4
176
     1
 64
     7
176
     1
 65
   257
176
     1
 75
     1
176
     1
175
     1
176
     1
 42
1.0
176
     1
 92
        8
176
     1
 66
     7
176
     1
 43
1.0
176
     1
 76
     1
176
     1
 77
     6
176
     1
 78
     2
176
     1
 67
     7
176
     1
 79
     5
176
     1
170
     0
176
     1
171
     0
176
     1
290
     0
176
     1
 93
       13
176
     1
 44
0.0
176
     1
173
     0
176
     1
  0
VISUALSTYLE
  5
2C
102
{ACAD_REACTORS
330
2A
102
}
330
2A
100
AcDbVisualStyle
  2
FlatWithEdges
 70
     1
177
     2
291
     1
 71
     2
176
     1
 72
     1
176
     1
 73
     1
176
     1
 90
        2
176
     1
 40
-0.6
176
     1
 41
30.0
176
     1
 62
     5
 63
     7
421
 16777215
176
     1
 74
     1
176
     1
 91
        4
176
     1
 64
     7
176
     1
 65
   257
176
     1
 75
     1
176
     1
175
     1
176
     1
 42
1.0
176
     1
 92
        0
176
     1
 66
   257
176
     1
 43
1.0
176
     1
 76
     1
176
     1
 77
     6
176
     1
 78
     2
176
     1
 67
     7
176
     1
 79
     5
176
     1
170
     0
176
     1
171
     0
176
     1
290
     0
176
     1
 93
       13
176
     1
 44
0.0
176
     1
173
     0
176
     1
  0
VISUALSTYLE
  5
2D
102
{ACAD_REACTORS
330
2A
102
}
330
2A
100
AcDbVisualStyle
  2
Gouraud
 70
     2
177
     2
291
     1
 71
     2
176
     1
 72
     2
176
     1
 73
     1
176
     1
 90
        2
176
     1
 40
-0.6
176
     1
 41
30.0
176
     1
 62
     5
 63
     7
421
 16777215
176
     1
 74
     0
176
     1
 91
        4
176
     1
 64
     7
176
     1
 65
   257
176
     1
 75
     1
176
     1
175
     1
176
     1
 42
1.0
176
     1
 92
        0
176
     1
 66
     7
176
     1
 43
1.0
176
     1
 76
     1
176
     1
 77
     6
176
     1
 78
     2
176
     1
 67
     7
176
     1
 79
     5
176
     1
170
     0
176
     1
171
     0
176
     1
290
     0
176
     1
 93
       13
176
     1
 44
0.0
176
     1
173
     0
176
     1
  0
VISUALSTYLE
  5
2E
102
{ACAD_REACTORS
330
2A
102
}
330
2A
100
AcDbVisualStyle
  2
GouraudWithEdges
 70
     3
177
     2
291
     1
 71
     2
176
     1
 72
     2
176
     1
 73
     1
176
     1
 90
        2
176
     1
 40
-0.6
176
     1
 41
30.0
176
     1
 62
     5
 63
     7
421
 16777215
176
     1
 74
     1
176
     1
 91
        4
176
     1
 64
     7
176
     1
 65
   257
176
     1
 75
     1
176
     1
175
     1
176
     1
 42
1.0
176
     1
 92
        0
176
     1
 66
   257
176
     1
 43
1.0
176
     1
 76
     1
176
     1
 77
     6
176
     1
 78
     2
176
     1
 67
     7
176
     1
 79
     5
176
     1
170
     0
176
     1
171
     0
176
     1
290
     0
176
     1
 93
       13
176
     1
 44
0.0
176
     1
173
     0
176
     1
  0
VISUALSTYLE
  5
38
102
{ACAD_REACTORS
330
2A
102
}
330
2A
100
AcDbVisualStyle
  2
Linepattern
 70
    14
177
     2
291
     1
 71
     2
176
     1
 72
     2
176
     1
 73
     0
176
     1
 90
        0
176
     1
 40
-0.6
176
     1
 41
-30.0
176
     1
 62
     5
 63
     7
421
 16777215
176
     1
 74
     1
176
     1
 91
        4
176
     1
 64
     7
176
     1
 65
   257
176
     1
 75
     7
176
     1
175
     7
176
     1
 42
1.0
176
     1
 92
        8
176
     1
 66
     7
176
     1
 43
1.0
176
     1
 76
     1
176
     1
 77
     6
176
     1
 78
     2
176
     1
 67
     7
176
     1
 79
     5
176
     1
170
     0
176
     1
171
     0
176
     1
290
     0
176
     1
 93
        1
176
     1
 44
0.0
176
     1
173
     0
176
     1
  0
VISUALSTYLE
  5
33
102
{ACAD_REACTORS
330
2A
102
}
330
2A
100
AcDbVisualStyle
  2
Realistic
 70
     8
177
     2
291
     0
 71
     2
176
     1
 72
     2
176
     1
 73
     0
176
     1
 90
        0
176
     1
 40
-0.6
176
     1
 41
-30.0
176
     1
 62
     5
 63
     7
421
 16777215
176
     1
 74
     1
176
     1
 91
        0
176
     1
 64
     7
176
     1
 65
   257
176
     1
 75
     1
176
     1
175
     1
176
     1
 42
1.0
176
     1
 92
        8
176
     1
 66
     8
424
  7895160
176
     1
 43
1.0
176
     1
 76
     1
176
     1
 77
     6
176
     1
 78
     2
176
     1
 67
     7
176
     1
 79
     5
176
     1
170
     0
176
     1
171
     0
176
     1
290
     0
176
     1
 93
       13
176
     1
 44
0.0
176
     1
173
     0
176
     1
  0
VISUALSTYLE
  5
37
102
{ACAD_REACTORS
330
2A
102
}
330
2A
100
AcDbVisualStyle
  2
Thicken
 70
    13
177
     2
291
     1
 71
     2
176
     1
 72
     2
176
     1
 73
     0
176
     1
 90
        0
176
     1
 40
-0.6
176
     1
 41
-30.0
176
     1
 62
     5
 63
     7
421
 16777215
176
     1
 74
     1
176
     1
 91
        4
176
     1
 64
     7
176
     1
 65
   257
176
     1
 75
     1
176
     1
175
     1
176
     1
 42
1.0
176
     1
 92
       12
176
     1
 66
     7
176
     1
 43
1.0
176
     1
 76
     1
176
     1
 77
     6
176
     1
 78
     2
176
     1
 67
     7
176
     1
 79
     5
176
     1
170
     0
176
     1
171
     0
176
     1
290
     0
176
     1
 93
        1
176
     1
 44
0.0
176
     1
173
     0
176
     1
  0
ENDSEC
  0
EOF
